Ads

Sprouting (Final Fantasy X) Guitar Tab

Submitted: Jul 23, 2013 by Deaugustino

5
Average: 5 (2 votes)
Download | Listen
Game: Final Fantasy X
Composer(s): Nobuo Uematsu, Junya Nakano, Masashi Hamauzu
Style: Transcription
Series: Final Fantasy

This song is also called Movement in Green

AutoScroll: Slow | Medium | Fast
Final Fantasy X - Sprouting (Movement in Green)
Composed by: Nobuo Uematsu, Junya Nakano, Masashi Hamauzu

Tabbed by: deaugustino

6/8 time

Palm mute the first section.

   E   E   E   E   E   E     E   E   E   E   E   E     E   E   E   E   E   E     E   E   E   E   E   E                                
E|-6---------------6---8---|-9-----------------------|-4---------------4---6---|-8-----------------------|
B|-------------7-----------|-------------------------|-------------4-----------|-------------------------|
G|---------6---------------|-------------------------|---------5---------------|-------------------------|
D|-----8-------------------|-------------------------|-----6-------------------|-------------------------|
A|-------------------------|-------------------------|-------------------------|-------------------------|
E|-------------------------|-------------------------|-------------------------|-------------------------|

   E   E   E   E   E   E     E   E   E   E   E   E     E   E   E   E   E   E     E   E   E   E   E   E
E|-------------------------|---------------------8---|-8-----------------------|-------------------------|
B|-6-------6-------6-------|-6-------4---------------|-------------------------|-6-----------------------|
G|-------------------------|-------------------------|-------------------------|-------------------------|
D|-------------------------|-------------------------|-------------------------|-------------------------|
A|-------------------------|-------------------------|-------------------------|-------------------------|
E|-------------------------|-------------------------|-------------------------|-------------------------|

   E   E   E   E   E   E     E   E   E   E   E   E     E   E   E   E   E   E
E|-6-------6-------6-------|-6-------------------11--|-11----------------------|
B|-------------------------|---------9---------------|-------------------------|
G|-------------------------|-------------------------|-------------------------|
D|-------------------------|-------------------------|-------------------------|
A|-------------------------|-------------------------|-------------------------|
E|-------------------------|-------------------------|-------------------------|

   E   E   E   E   E   E
E|-------------------------|
B|-6-----------------------| 
G|-------------------------|
D|-------------------------|
A|-------------------------|
E|-------------------------|


play louder during the next section.


   S  S  Q    E   E   E     Q    Q    Q      Q    E   E   Q 
E|-6h-8p-6--------6---8---|-9----8----6----|-4--------6---4----|
B|------------6-----------|----------------|-------------------|
G|------------------------|----------------|-------------------|
D|------------------------|----------------|-------------------|
A|------------------------|----------------|-------------------|
E|------------------------|----------------|-------------------|

   H     Q      Q    E   E   E   E     Q    Q    Q      Q    E   E   Q      H     Q
E|------------|-6------------6---8---|-9----8----9----|-11-------9---11---|-13---------|
B|-6----------|----------6-----------|----------------|-------------------|------------|
G|------------|----------------------|----------------|-------------------|------------|
D|------------|----------------------|----------------|-------------------|------------|
A|------------|----------------------|----------------|-------------------|------------|
E|------------|----------------------|----------------|-------------------|------------|

   S  S  Q    E   E   E     Q    Q    Q      Q    E   E   Q      Q    Q    E   E
E|-9P-8P-6--------6---8---|-9----8----6----|-4--------6---4----|-----------9---11--|
B|------------6-----------|----------------|-------------------|-6-----------------|
G|------------------------|----------------|-------------------|-------------------|
D|------------------------|----------------|-------------------|-------------------|
A|------------------------|----------------|-------------------|-------------------|
E|------------------------|----------------|-------------------|-------------------|

   Q    Q    Q      E   E   Q    E   E     Q    E   E   E   E     S  S  H     E
E|-13---13---13---|-13------11-------16--|-9--------9---8-------|-6h-8p-6---------|
B|----------------|----------------------|------------------9---|-----------------|
G|----------------|----------------------|----------------------|-----------------|
D|----------------|----------------------|----------------------|-----------------|
A|----------------|----------------------|----------------------|-----------------|
E|----------------|----------------------|----------------------|-----------------|

   H.  
E|--------|
B|--------|
G|--------|
D|--------|
A|--------|
E|--------|

Play slightly softer.

   H     Q      Q    Q    Q      H     Q      H     Q      H     Q      H     Q
E|-------6----|-6----4---------|-------9----|-9----------|-------8----|-8----------|
B|-4----------|-----------7----|-6----------|------------|-6----------|------------|
G|------------|----------------|------------|------------|------------|------------|
D|------------|----------------|------------|------------|------------|------------|
A|------------|----------------|------------|------------|------------|------------|
E|------------|----------------|------------|------------|------------|------------|

   H     Q      Q    Q    Q      H     Q      Q    Q    Q      H     Q      Q
E|-------6----|-6----5---------|-------8----|-8----6---------|-------11---|-11---------|
B|-4----------|----------------|-6----------|-----------9----|-8----------|------------|
G|------------|----------------|------------|----------------|------------|------------|
D|------------|----------------|------------|----------------|------------|------------|
A|------------|----------------|------------|----------------|------------|------------|
E|------------|----------------|------------|----------------|------------|------------|

   Q    Q    Q      H     Q      Q.    E   Q      H.
E|-10---6---------|-------8----|----------------|--------|
B|-----------8----|-6----------|----------------|-6------|
G|----------------|------------|-8-----5---8----|--------|
D|----------------|------------|----------------|--------|
A|----------------|------------|----------------|--------|
E|----------------|------------|----------------|--------|


Login or Register to remove this ad.

1 comment on Sprouting

perfect

As long as there's no background guitar (don't remember there being any), this is perfectly tabbed! good job.