Ads

Song of Prayer (Final Fantasy X) Guitar Tab

Submitted: Oct 18, 2011 by OggirtMoonfrad

5
Average: 5 (6 votes)
Download | Listen
Game: Final Fantasy X
Composer(s): Nobuo Uematsu, Junya Nakano, Masashi Hamauzu
Style: 2 or more instruments, Arrangement, Fingerstyle
Series: Final Fantasy

Click here for a video example.

AutoScroll: Slow | Medium | Fast
Guitar 1
      Q    Q    Q    Q       W                   Q    Q    Q     Q      
D#||-------0---------3----|--L----------------|--3---------3-----------|
A#||--1---------3---------|-------------------|-------5----------5-----|
F#||-------0---------4----|--L----------------|--4---------4-----4-----|
C#||--2---------4---------|-------------------|-------5----------------|
G#||--0-------------------|--L----------------|--0--------------(0)----|
D#||----------------------|-------------------|------------------------|


  W                   Q    Q    Q    Q       W                 
-------------------|-------0---------3----|--L----------------|
--L----------------|--1---------3---------|-------------------|
--L----------------|-------0---------4----|--L----------------|
-------------------|--2---------4---------|-------------------|
--L----------------|--0-------------------|--L----------------|
-------------------|----------------------|-------------------|


  Q    Q    Q     Q        W                   Q    Q    Q    Q     
--3---------3-----------|-------------------|--0----2---------0----|
-------5----------5-----|--L----------------|--1----3----3----0----|
--4---------4-----4-----|--L----------------|------------4---------|
-------5----------------|-------------------|----------------------|
--0--------------(0)----|--L----------------|--0----2----0---------|
------------------------|-------------------|-----------------3----|


                                      ^                         
  W                   Q    Q    E  E  Q       W                 
--L----------------|-------0----0--L--0----|--L----------------|
--L----------------|--0---------------0----|--L----------------|
-------------------|--0------------0--2----|--L----------------|
-------------------|-------2----2--L--2----|--L----------------|
-------------------|------------------0----|--L----------------|
--L----------------|--3----0----0--L-------|-------------------|


  Q    Q    Q    Q       H        H           Q    Q    Q    Q     
----------------------|--0--------0--------|--L-------------------|
--1----1----3----3----|--------------------|--L----3----0----0----|
----------------------|--0--------0--------|--L----4----0----0----|
--2----2----4----4----|--------------------|--L-------------------|
--0----L----0----L----|--0--------L--------|--L----0----L----0----|
----------------------|--------------------|----------------------|


  Q    H.              H           Q    Q    Q    Q       W                 
--------------------|-----------|-------0---------3----|--L----------------|
--3----3------------|--L--------|--1---------3---------|-------------------|
--2----2------------|--L--------|-------0---------4----|--L----------------|
-------4------------|--L--------|--2---------4---------|-------------------|
--L----0------------|--L--------|--0-------------------|--L----------------|
--------------------|-----------|----------------------|-------------------|


  Q    Q    Q     Q        W                   Q    Q    Q    Q     
--3---------3-----------|-------------------|--0----2---------0----|
-------5----------5-----|--L----------------|--1----3----3----0----|
--4---------4-----4-----|--L----------------|------------4---------|
-------5----------------|-------------------|----------------------|
--0--------------(0)----|--L----------------|--0----2----0---------|
------------------------|-------------------|-----------------3----|


                                      ^                         
  W                   Q    Q    E  E  Q       W                 
--L----------------|-------0----0--L--0----|--L----------------|
--L----------------|--0---------------0----|--L----------------|
-------------------|--0------------0--2----|--L----------------|
-------------------|-------2----2--L--2----|--L----------------|
-------------------|------------------0----|--L----------------|
--L----------------|--3----0----0--L-------|-------------------|


  Q    Q    Q    Q       H        H           Q    Q    Q    Q     
----------------------|--0--------0--------|--L-------------------|
--1----1----3----3----|--5-----------------|--L----3----0----0----|
----------------------|--0--------0--------|--L----4----0----0----|
--2----2----4----4----|--5-----------------|--L-------------------|
--0----L----0----L----|--0--------L--------|--L----0----L----0----|
----------------------|--------------------|----------------------|


  Q    H.              H           Q    Q    Q    Q       W                 
--------------------|-----------|-------0---------3----|--L----------------|
--3----3------------|--L--------|--1---------3---------|-------------------|
--2----2------------|--L--------|-------0---------4----|--L----------------|
-------4------------|--L--------|--2---------4---------|-------------------|
--L----0------------|--L--------|--0-------------------|--L----------------|
--------------------|-----------|----------------------|-------------------|


  Q    Q    Q     Q        W                   Q    Q    Q    Q     
--3---------3-----------|-------------------|-------0---------3----|
-------5----------5-----|--L----------------|--1---------3---------|
--4---------4-----4-----|--L----------------|-------0---------4----|
-------5----------------|-------------------|--2---------4---------|
--0--------------(0)----|--L----------------|--0-------------------|
------------------------|-------------------|----------------------|


  W                   Q    Q    Q     Q        W                  
--L----------------|--3---------3-----------|-------------------||
-------------------|-------5----------5-----|--L----------------||
--L----------------|--4---------4-----4-----|--L----------------||
-------------------|-------5----------------|-------------------||
--L----------------|--0--------------(0)----|--L----------------||
-------------------|------------------------|-------------------||




Guitar 2
                                      Q    Q    Q     Q       W                 
D#||-------|-------|-------|-------|--5----8----7----10----|--L----------------|
A#||-------|-------|-------|-------|-----------------------|-------------------|
F#||-------|-------|-------|-------|-----------------------|-------------------|
C#||-------|-------|-------|-------|-----------------------|-------------------|
G#||-------|-------|-------|-------|-----------------------|-------------------|
D#||-------|-------|-------|-------|-----------------------|-------------------|


   Q    Q     E   E  Q       W                   Q    Q    Q    Q     
--10----8----10--12--5----|--L----------------|--0----2----7----7----|
--------------------------|-------------------|----------------------|
--------------------------|-------------------|----------------------|
--------------------------|-------------------|----------------------|
--------------------------|-------------------|----------------------|
--------------------------|-------------------|----------------------|


  W                    Q    Q     E   E  Q       W                 
--L----------------|--10----8----10--12--5----|--L----------------|
-------------------|--------------------------|-------------------|
-------------------|--------------------------|-------------------|
-------------------|--------------------------|-------------------|
-------------------|--------------------------|-------------------|
-------------------|--------------------------|-------------------|


  Q    Q    Q    Q       H        H           Q    Q    Q    Q     
--5----5----7----7----|--8--------8--------|--L----7----3----3----|
----------------------|--------------------|----------------------|
----------------------|--------------------|----------------------|
----------------------|--------------------|----------------------|
----------------------|--------------------|----------------------|
----------------------|--------------------|----------------------|


  Q    H.              H           Q    Q    Q     Q       W                 
--5----5------------|--L--------|--5----8----7----10----|--L----------------|
--------------------|-----------|-----------------------|-------------------|
--------------------|-----------|-----------------------|-------------------|
--------------------|-----------|-----------------------|-------------------|
--------------------|-----------|-----------------------|-------------------|
--------------------|-----------|-----------------------|-------------------|


   Q    Q     E   E  Q       W                   Q    Q    Q    Q     
--10----8----10--12--5----|--L----------------|--0----2----7----7----|
--------------------------|-------------------|----------------------|
--------------------------|-------------------|----------------------|
--------------------------|-------------------|----------------------|
--------------------------|-------------------|----------------------|
--------------------------|-------------------|----------------------|


  W                    Q    Q     E   E  Q       W                 
--L----------------|--10----8----10--12--5----|--L----------------|
-------------------|--------------------------|-------------------|
-------------------|--------------------------|-------------------|
-------------------|--------------------------|-------------------|
-------------------|--------------------------|-------------------|
-------------------|--------------------------|-------------------|


  Q    Q    Q    Q       H        H           Q    Q    Q    Q     
--5----5----7----7----|--8--------8--------|--L----7----3----3----|
----------------------|--------------------|----------------------|
----------------------|--------------------|----------------------|
----------------------|--------------------|----------------------|
----------------------|--------------------|----------------------|
----------------------|--------------------|----------------------|


  Q    H.              H                                             
--5----5------------|--L--------|-----------|-----------|-----------|
--------------------|-----------|-----------|-----------|-----------|
--------------------|-----------|-----------|-----------|-----------|
--------------------|-----------|-----------|-----------|-----------|
--------------------|-----------|-----------|-----------|-----------|
--------------------|-----------|-----------|-----------|-----------|


-----------|-----------|-----------|-----------|-----------||
-----------|-----------|-----------|-----------|-----------||
-----------|-----------|-----------|-----------|-----------||
-----------|-----------|-----------|-----------|-----------||
-----------|-----------|-----------|-----------|-----------||
-----------|-----------|-----------|-----------|-----------||
Login or Register to remove this ad.

5 comments on Song of Prayer

thanks for sharing, sounds

5

thanks for sharing, sounds good man

=D

5

nice! good job ^_^

I started playing the

5

I started playing the thinger, and I was like, wtf this is super-super-interpretive.

Then I played the video and was all "oh dear god it's a duet"

Then I realized that "dear god" was an unintentional pun

Then I five-starred and wrote this before even trying the rest of the tab, because...I have faith?

^ Hah It's a nice tab though

^ Hah

It's a nice tab though may try and re-arrange this for a solo guitar. Key word's being try. lol

I really don't think there's

I really don't think there's any way it can be done--the beauty of it depends on the thick texture of the low guitar part combined with the sparkle of the high part, both working independently (but in harmony) for that awesome duet sound that you can really only get from 2 or more guitars.