Ads

Song of Prayer (Final Fantasy X) Ukulele Tab

Submitted: Dec 20, 2009 by Stamen47 (Last updated: Feb 06, 2010)

5
Average: 5 (3 votes)
Download | Listen
Game: Final Fantasy X
Composer(s): Nobuo Uematsu, Junya Nakano, Masashi Hamauzu
Style: Transcription
Series: Final Fantasy

AutoScroll: Slow | Medium | Fast
                                Song of Prayer
                            Excerpt from Ending Theme                                  



     Q    Q    Q    Q       H        H           Q    Q    Q    E  E   
A||----------------------|--0-----------------|-------0---------0--2--|
E||-------0----3----2----|--3--------2--------|--0--------------------|
C||----------------------|--2--------2--------|--0---------3----------|
G||----------------------|--------------------|------------0----------|


  Q    Q    Q    Q        Q    Q    Q    Q       H        Q    Q     
-----------------------|-------2----4----0----|--2------------------|
--0--------------------|----------------------|--2------------------|
-------4----6----7S----|--2---------1---------|--4--------3---------|
-----------------------|--0---------2---------|---------------------|


  Q    Q    Q    E  E     Q.     E  Q    Q       E  E  E  E  E  E  E  E   
-------0---------0--2--|------------2---------|--7--------3--2--------0--|
--0--------------2-----|--0-------------------|-----0--------------2-----|
--0---------4----3-----|--4------2------------|-----------------2--------|
------------0----------|----------------------|--------0-----------------|


  W                  
-------------------||
--0----------------||
-------------------||
-------------------||




Duration Legend
---------------
W - whole
H - half
Q - quarter
E - 8th
S - 16th
. - note dotted


Tablature Legend
----------------
S - shift slide
Login or Register to remove this ad.

1 comment on Song of Prayer

Haven't seen you in a while,

Haven't seen you in a while, Stamen! Love your tabs. :)