Login or Register to remove this ad.

Someday the Dream Will End (Final Fantasy X) Guitar Tab

Submitted: Jun 26, 2017 by ILovePaper (Last updated: Jun 26, 2017)

5
Average: 5 (2 votes)
Download | Listen
Game: Final Fantasy X
Composer(s): Nobuo Uematsu, Junya Nakano, Masashi Hamauzu
Style: Arrangement, Fingerstyle
Series: Final Fantasy

This song is also called A Fleeting Dream

AutoScroll: Slow | Medium | Fast
Title: Someday This Dream Will End

So, this tab is based on the arrangment from Basisti94. Check out his arrangement, it's awesome!


Track 1: Track 1

E|-----------------0---------------|---------------------------------|---------------------------------|
B|-------------1-------1-----------|-----------------0---------------|-----------------1---------------|
G|---------2---------------2-------|-------------0-------0-----------|-------------2-------2-----------|
D|-----2-----------------------2---|---------0---------------0-------|---------2---------------2-------|
A|-0-------------------------------|-----2-----------------------2---|-----3-----------------------3---|
E|---------------------------------|-3-------------------------------|-1-------------------------------|


E|---------------------------------|-----------------0---------------|---------------------------------|
B|-----------------0---------------|-------------1-------1-----------|-----------------0---------------|
G|-------------0-------0-----------|---------2---------------2-------|-------------0-------0-----------|
D|---------0---------------0-------|-----2-----------------------2---|---------0---------------0-------|
A|-----2-----------------------2---|-0-------------------------------|-----2-----------------------2---|
E|-0-------------------------------|---------------------------------|-3-------------------------------|


E|-----------------0---------------|-0------|--------|---------------------------|
B|-------------0-------0-----------|-1------|--------|------0---1---0----1---3---|
G|---------2---------------2-------|-2------|--------|-2-------------------------|
D|-----2-----------------------2---|-2------|--------|-2-------------------------|
A|-0-------------------------------|-0------|--------|-0------------2------------|
E|---------------------------------|--------|--------|--------------3------------|


E|-0----1---0---------|-0------------------|--------------------|-------------------------5----|
B|--------------3-----|------3---1---0-----|-1----0-------------|---------------------1--------|
G|--------------------|-2------------------|----------2---0-----|-----------------2------------|
D|--------------------|-0------------2-----|--------------------|---------2---3----------------|
A|-3------------2-----|--------------------|--------------2-----|-----3------------------------|
E|-1------------0-----|--------------------|-2------------3-----|-1----------------------------|


E|-0---0---0------|---------------------------------|-0-------1---0-------------------|
B|-1---1---1------|---------0---1---0-------1---3---|-----------------3---------------|
G|-2---2---2------|-2-------------------------------|---------------------------------|
D|-2---2---2------|-----2-------2-------0-------0---|-----2-------2-------0-------0---|
A|-0---0---0------|-0-------0-----------------------|---------------------------------|
E|----------------|-----------------3-------3-------|-1-------1-------0-------0-------|


E|-0-------------------------------|---------------------------------|---------------------------------|
B|---------3---1---0---------------|---------------------------------|---------0---1---0-------1---3---|
G|-----2-------2-------0-------0---|-5-------4---2---0---------------|-2-------------------------------|
D|-0-------0-------2-------2-------|-----2-------2-------0-------0---|-----2-------2-------0-------0---|
A|---------------------------------|---------------------------------|---------------------------------|
E|---------------------------------|-2-------2-------3-------3-------|-1-------1-------0-------0-------|


E|-0---------------3-------1-------|-0----------------------|-----------------------|
B|---------3-----------------------|-0----3---1---0---------|-----------------------|
G|-----2-------2-------------------|-0-----------------0----|-1---2---2---2---------|
D|-0-------0-----------0-------0---|-2----------------------|-----------------------|
A|---------------------------------|-3----------------------|-----------------------|
E|-----------------3-------3-------|------------------------|-2---------------------|


E|-5----7----4----5----|--------|---------------------|---------------------|-0-------------------|
B|---------------------|--------|-----------0----1----|-0---------1----3----|-----------3---------|
G|---------------------|--------|-2-------------------|---------------------|---------------------|
D|---------------------|--------|---------------------|---------------------|---------------------|
A|---------------------|--------|---------------------|-0----x----0----x----|---------------------|
E|---------------------|--------|-1----x----1----x----|---------------------|-1----x----1----x----|


E|---------------------|---------------------|---------------------|-0-------------------|
B|-1----0--------------|-----------0----1----|-0---------1----3----|---------------------|
G|-----------2---------|-2-------------------|---------------------|---------------------|
D|----------------2----|---------------------|---------------------|---------------------|
A|-0----x----0----x----|---------------------|---------------------|---------------------|
E|---------------------|-1----x----1----x----|-3----x----3----x----|-2----x----2----x----|


E|-----------0---------|---------------------|---------------------|-0-------------------|
B|---------------------|-----------0----1----|-0---------1----3----|-----------3---------|
G|-2-------------------|-2-------------------|-----------0---------|---------------------|
D|-0----x--------------|-----------2---------|------2--------------|-----------2---------|
A|---------------------|------3--------------|-0-------------------|------3--------------|
E|-----------3----x----|-1-------------------|---------------------|-1-------------------|


E|---------------------|---------------------|---------------------|-0-------------------|
B|-1----0--------------|-----------0----1----|-0---------1----3----|---------------------|
G|-----------2---------|-2-------------------|---------------------|---------------------|
D|------2---------2----|-----------2---------|-----------0---------|-----------2---------|
A|-0-------------------|------3--------------|------2--------------|------3--------------|
E|---------------------|-1-------------------|-3-------------------|-2-------------------|


E|-----------0---------|-0----3--------------|-0----------------------------|-0----3-------------------|
B|---------------------|-----------3---------|------3---1-------1---1---3---|-----------3--------1--0--|
G|-2-------------------|---------------------|--------------2---------------|--------------------------|
D|-0-------------------|---------------------|------------------------------|--------------------------|
A|---------------------|---------------------|------------------------------|--------------------------|
E|-----------3---------|-1----x----1----x----|-3----x-------3-------x-------|-1----x----1----x---------|


E|------------------------|-0----3--------------|-0----------------------------|-0----3----7----3----|
B|----------------1---3---|-----------3---------|------3---1-------1---1---3---|---------------------|
G|-2----------------------|---------------------|--------------2---------------|---------------------|
D|------------------------|---------------------|------------------------------|---------------------|
A|-0----x----3----x-------|---------------------|------------------------------|---------------------|
E|------------------------|-1----x----1----x----|-3----x-------3-------x-------|-2----x----2----x----|


E|-5---------0---------|-0-------3-----------------------|-0-------------------------------|
B|---------------------|-----------------3---------------|---------3---1-------1---1---3---|
G|---------------------|---------------------------------|-----------------2---------------|
D|-0----x--------------|-----2-------2-------2-------2---|-----0-------0-------0-------0---|
A|---------------------|---------------------------------|---------------------------------|
E|-----------3----x----|-1-------1-------1-------1-------|-3-------3-------3-------3-------|


E|-0-------3-------------------------|---------------------------------|-0-------3-----------------------|
B|-----------------3-----------1--0--|-------------------------1---3---|-----------------3---------------|
G|-----------------------------------|-2-------------------------------|---------------------------------|
D|-----2-------2-------2-------2-----|-----2-------2-------2-------2---|-----2-------2-------2-------2---|
A|-----------------------------------|-0-------0-------3-------3-------|---------------------------------|
E|-1-------1-------1-------1---------|---------------------------------|-1-------1-------1-------1-------|


E|-0-------------------------------|---------3-------7-------3-------|-5---------------0---------------|
B|---------3---1-------1---1---3---|-5-------------------------------|---------------------------------|
G|-----------------2---------------|---------------------------------|-----2-------2-------------------|
D|-----0-------0-------0-------0---|-----2-------2-------2-------2---|-0-------0-----------0-------0---|
A|---------------------------------|---------------------------------|---------------------------------|
E|-3-------3-------3-------3-------|-2-------2-------2-------2-------|-----------------3-------3-------|


E|-0------|
B|-1------|
G|-2------|
D|-2------|
A|-0------|
E|--------|



Login or Register to remove this ad.

1 comment on Someday the Dream Will End

Here's a video of me playing

5

Here's a video of me playing this for the first time, you'll get a feel for how difficult the song is as well as my pointers on how to play it:
https://youtu.be/xrfNGX4c2Pw