Ads

Someday the Dream Will End (Final Fantasy X) Guitar Tab

Submitted: Oct 24, 2013 by Basisti94

5
Average: 5 (6 votes)
Download | Listen
Game: Final Fantasy X
Composer(s): Nobuo Uematsu, Junya Nakano, Masashi Hamauzu
Style: Arrangement, Fingerstyle
Series: Final Fantasy

AutoScroll: Slow | Medium | Fast
                       Someday The Dream Will End
                                
Final Fantasy X
Nobuo Uematsu
Guitar Arrangement by Basisti94 (Miro Laaksonen)
20.10.2013

One of my favourite Final Fantasy tracks.

Capo 5
Tempo ~ 92
     ^          ^             ^          ^           ^          ^         
     Q    E  E  Q    E  E     Q    E  E  H           Q    E  E  H         
E||------------------------|--0----1--0-----------|--0-------------------|
B||-------0--1--0----1--3--|-------------3--------|--1----3--1--0--------|
G||--2---------------------|-------------0--------|--2----------0--------|
D||--2----------2----2-----|--2----------0--------|--0----------2--------|
A||--0---------------------|--3----------2--------|----------------------|
E||-------------3----------|--1----------0--------|----------------------|


  ^          ^            ^          ^                                  
  Q    E  E  Q    Q       Q    E  E  Q    E  E     Q    Q    Q    Q     
-----------------------|------------------------|--0---------3----1----|
--1----0---------------|-------0--1--0----1--3--|-------3--------------|
----------2--0---------|--2---------------------|--2-------------------|
--2----------0---------|--2----------0----------|--0---------0---------|
--3---------------2----|--3----------2----------|----------------------|
--2----------3---------|--1----------0----------|------------3---------|


  Q    E  E  Q    Q       E  E  H.              Q    Q    Q    Q     
--0--------------------|---------------------|--5----7----4----5----|
--0----3--1--0---------|---------------------|----------------------|
--0---------------0----|--1--2--2------------|----------------------|
-----------------------|---------------------|----------------------|
--3--------------------|--2------------------|----------------------|
-----------------------|--2------------------|--L-------------------|


  H        Q    Q       H        Q    Q       H        H         
---------------------|---------------------|--0-----------------|
-----------0----1----|--0--------1----3----|-----------3--------|
--2------------------|--0------------------|--------------------|
--2------------------|--2------------------|--2-----------------|
--3------------------|--0------------------|--3-----------------|
--1------------------|---------------------|--1-----------------|


  Q    Q    Q    Q       H        Q    Q       H        Q    Q     
----------------------|---------------------|---------------------|
--1----0--------------|-----------0----1----|--0--------1----3----|
--0---------2---------|--2------------------|--0------------------|
--2--------------2----|--2------------------|--0------------------|
--0-------------------|--3------------------|---------------------|
----------------------|--1------------------|--3------------------|


  W                   H        H           Q    Q    Q    Q     
--0----------------|-----------0--------|----------------------|
-------------------|--------------------|------------0----1----|
-------------------|--2-----------------|--2-------------------|
--2----------------|--0-----------------|--2-------------------|
--3----------------|--------------------|--3-------------------|
--2----------------|-----------3--------|--1----1--------------|


  Q    Q    Q    Q       Q    Q    H           Q    Q    Q    Q     
----------------------|--0------------------|----------------------|
--0---------1----3----|------------3--------|--1----0--------------|
--0-------------------|---------------------|--0---------2---------|
--2-------------------|--2------------------|--2--------------2----|
--0----0--------------|--3------------------|--0----0----1----2----|
----------------------|--1----1-------------|----------------------|


  Q    Q    Q    Q       Q    Q    Q    Q       Q    H.            
----------------------|----------------------|--0-----------------|
------------0----1----|--0---------1----3----|--------------------|
--2-------------------|--0-------------------|--------------------|
--2-------------------|--2-------------------|--2-----------------|
--3-------------------|--0----0--------------|--3-----------------|
--1----1--------------|----------------------|--2----2------------|


  H        H           Q    Q    H           Q    E  E  E  Q    E   
-----------0--------|--0----3-------------|--0---------------------|
--------------------|------------3--------|-------3--1-----1----3--|
--2-----------------|---------------------|--2----------2----------|
--0-----------------|--2------------------|--0---------------------|
--------------------|--3------------------|------------------------|
-----------3--------|--1------------------|--3---------------------|


  Q    Q    Q.     S  S    H        Q    E  E     Q    Q    H         
--0----3----------------|----------------------|--0----3-------------|
------------3------1p-0-|----------------1--3--|------------3--------|
------------------------|--2-------------------|---------------------|
--2---------------------|--2--------2----2-----|--2------------------|
--3---------------------|--0-------------3-----|--3------------------|
--1---------------------|----------------------|--1------------------|


  Q    E  E  E  Q    E     Q    Q    Q    Q       H        H         
--0---------------------|--0----3----7----3----|--5--------0--------|
-------3--1-----1----3--|----------------------|--5-----------------|
--2----------2----------|----------------------|--------------------|
--0---------------------|----------------------|--0-----------------|
------------------------|----------------------|--------------------|
--3---------------------|--2-------------------|-----------3--------|


  E  E  E  E  E  E  E  E     E  E  E  E  E  E  E  E   
--0-----3-----------------|--0-----------------------|
--------------3-----------|--0-----3--1-----1--1--3--|
--2-----------------------|--------------2-----------|
--------------------------|--------------------------|
--------------------------|--------------------------|
--1--1--1--1--1--1--1--1--|--3--3--3--3--3--3--3--3--|


  E  E  E  E  E  E  E  S  S    E  E  E  E  E  E  E  E   
--0-----3-------------------|--------------------------|
--------------3--------1p-0-|--------------------1--3--|
--2-------------------------|--2-----------------------|
----------------------------|--------------2--2--2-----|
----------------------------|--0--0--0--0--------3--3--|
--1--1--1--1--1--1--1--1----|--------------------------|


  E  E  E  E  E  E  E  E     E  E  E  E  E  E  E  E   
--0-----3-----------------|--0-----------------------|
--------------3-----------|--0-----3--1-----1--1--3--|
--2-----------------------|--------------2-----------|
--------------------------|--------------------------|
--------------------------|--------------------------|
--1--1--1--1--1--1--1--1--|--3--3--3--3--3--3--3--3--|


                                                        ^                  
  E  E  E  E  E  E  E  E     E  E  E  E  E  E  E  E     W                  
--0-----3-----7-----3-----|--5-----------0-----------|-------------------||
--------------------------|--------------0-----------|--1----------------||
--------------------------|--------------------------|--2----------------||
--------------------------|--0--0--0--0--------------|--2----------------||
--------------------------|--------------------------|--0----------------||
--2--2--2--2--2--2--2--2--|--------------3--3--3--3--|-------------------||




Duration Legend
---------------
W - whole
H - half
Q - quarter
E - 8th
S - 16th
T - 32nd
X - 64th
. - note dotted
|-n-|  - n-tuplets


Tablature Legend
----------------
L - tied note
x - dead note
g - grace note
(n) - ghost note
> - accentuded note
NH - natural harmonic
AH - artificial harmonic
TH - tapped harmonic
SH - semi harmonic
PH - pitch harmonic
h - hammer on
p - pull off
b - bend
S - shift slide
s - legato slide
/ -  slide into from below or out of upwards
\ -  slide into from above or out of downwards
~ - vibrato
W - wide vibrato
tr - trill
TP - tremolo picking
T - tapping
S - slap
P - pop
< - fade in
^ - brush up
v - brush down
Login or Register to remove this ad.

1 comment on Someday the Dream Will End

Sweet!

5

Great arrangement, really kept the feel of the original!