Silence Before the Storm (Final Fantasy X) Ukulele Tab

Submitted: Jul 20, 2011 by Stamen47

5
Average: 5 (2 votes)
Download | Listen
Game: Final Fantasy X
Composer(s): Nobuo Uematsu, Junya Nakano, Masashi Hamauzu
Style: Arrangement, Fingerstyle, Natural harmonics
Series: Final Fantasy

AutoScroll: Slow | Medium | Fast
Silence Before the Storm
Tab by Stamen47

     E  E  E  E  E  E     E  E  E  E  E  E     E  E  E  E  E  E   
A||-----------5--------|-----------5--------|-----------3--------|
E||-----6-----6-----6--|--8--6-----6-----6--|--3--0--3-----3--0--|
C||--7--5--7-----7--5--|-----7--5-----7--5--|--0-----0-----0-----|
G||--0-----0-----0-----|--0-----0-----0-----|-----0-----0-----0--|


  E  E  E  E  E  E       E  E  E  E  E  E     E  E  E  E  E  E   
--5--------3---------||--1--3--5-----------|-----0--1-----------|
-----3--0-----3--0--*||--3-----6--3--------|--3-----1-----0--1--|
--0-----0-----0-----*||-----------------5--|-----------2--0-----|
-----0-----0-----0---||--------------0-----|--0-----------------|


  E  E  E  E  E  E     E  E  E  E  E  E     E  E  E  E  E  S S  
-----------3--------|--5--------3--------|--1--3--5------------|
--0-----------3--0--|-----3--0-----3--0--|--3-----6--3---------|
--0-----0-----0-----|--0-----0-----0-----|-------------------5-|
-----0-----0-----0--|-----0-----0-----0--|--------------0--0---|


  E  E  E  E  E  E     E  E  E  E  E  E     E  E  E  E  E  E   
-----0--1-----------|--------3-----------|--5--------3--------|
--3-----1-----0--1--|--0-----------3--0--|-----3--0-----3--0--|
-----------2--0-----|--0-----0-----0-----|--0-----0-----0-----|
--0-----------------|-----0-----0-----0--|-----0-----0-----0--|


  E  E  E  E  E  E     E  E   E  E  E  E     E  E  E  E  E   E   
-----3--------3-----|--L--3---L-----------|--------0------------|
--0--3-----0--------|--0---------------0--|-----1-----1-----10--|
--------5--------2--|------------0--2-----|--2------------------|
-----2--------4-----|--L--4p--2-----------|-----3--------0------|


  E   E   E  E  E  E     E  E  E  E  E  E     E  E  E  E  E  E   
----------0-----------|--0--4--2--0--------|--0--------------0--|
--L-------------------|-----5--------2--4--|--2--------2--4--2--|
-----10--10--9--7--5--|--6--------------1--|-----1--1-----------|
----------------------|-----------1--------|--------------------|


  E   E  Q     E  E     E  E  E   E  E   E     E  E  E   E  E   E   
---------7-----------|---------------7------|-----0-----10--9------|
--0------------------|--0-------------------|------------------10--|
-----11-------11-----|-----6-----11-----11--|-----------10---------|
--0---------------0--|--------0-------------|--0-----0----------0--|


   E  E  E  E  E  E     E  E  E  E  E  E     E  E  E  E  E  E   
---8--7--3--1--3--5--|-----------3--------|--5--------3--------|
------------------0--|-----0--------3--0--|-----3--0-----3--0--|
--10--------2--------|--0-----0-----0-----|--0-----0-----0-----|
------0--------------|--0--------0-----0--|-----0-----0-----0--|


  E  E  E   E  E   E      E  E  E  E  E   E   
-----0-----10--9------|---8--7---------------|
------------------10--|---------8--6--8--10--|
--2--------10---------|--10------------------|
--0-----0----------0--|------0-----0------0--|


     NH    NH    NH   NH    NH   NH      NH   NH   NH    NH    NH    NH  
     E     E     E    E     E    E       E    E    E     E     E     E   
-----0-------------------<>12-------|-----------------<>12-----------0--|
--<>12--------<>12--<>7-------------|------------<>7--------------<>12--|
--------<>12-------------------<>7--|-------<>5---------------11--------|
------------------------------------|--<>7------------------<>12--------|


   E  E  E   E  E   E      E  E  E  E  E  E     E  E  E  E  E  E   
------0-----10--9------|---8--7--3--1--3--5--|-----------3--------|
--10---------------10--|------------------0--|-----0--------3--0--|
------------10---------|--10--------2--------|--0-----0-----0-----|
---0-----0----------0--|------0--------------|--0--------0-----0--|


                       >              >     >               
  E  E  E  E  E  E     E  E  E  E  E  E     Q    Q    Q     
--5--------3--------|-----0-----1--0-----|------------3----|
-----3--0-----0--1--|--3-----3--------3--|--1---------1----|
--0-----0-----0--2--|--3-----------L--3--|--2----2---------|
-----0-----0--------|--------------------|-----------------|


  E  E  E  E  E  E     E  E  E  E  E  E     E  E  E  S S E  E   
--2--2-----------2--|--0--------2--------|--3--3------------3--|
--3-----3-----3-----|-----3--------3-----|--3-----3------3-----|
--2-----2--2--2-----|--2-----2-----2--2--|--2-----2--2-2-2-----|
--0--0-----0-----0--|-----0-----0-----0--|--0--0-----0------0--|


                       ^                     ^                   
  E  E  E  E  E  E     E  E  E  S S E  E     E  E  E  E   E  E   
--0--------2--------|--2-----2------3-----|--5-----------10-----|
-----3--------3-----|--3-----3------------|--3-----3------7--8--|
--2-----2-----2--2--|--2--2-----2-2-------|--2--2-----2---------|
-----0-----0-----0--|--0------------0--2--|--4------------------|


   ^                     ^                                       
   E  E  E  S S E  E     E  E  E  E  E  E     E  E  E  E  E  E   
---8------------7-----|--5--------3--2--3--|--5-----------2-----|
--10--8--7------------|--5--0-----0--3--5--|--3-----0--2--3--5--|
---9--------9-9-7--9--|--5-----2-----------|-----2--------2-----|
----------------------|--5-----------------|--4-----------------|


  E  E  E  E  E  S S    E  E  E  E  E  E     E  S S E  E  E  E   
-----------0---------|-----3--2--0-----0--|-----7-7-5--3--2--3--|
--3-----------3------|--1-----------3-----|--1------------5-----|
--2--4--2--0--2--4-4-|--2-----------4-----|--2------------------|
---------------------|--------------------|---------------------|


  ^                                                               
  E  Q    S S E  E     E  E  E  E   E  E      E  S S E  E  E  E   
--2-----------3-----|--5-----------10-----|---8------------7-----|
--3-----------------|--3-----3------7--8--|--10--8-8-7-----------|
--2--2----2-2-------|-----2-----2---------|---9---------9--7--9--|
--0-----------0--2--|--4------------------|----------------------|


                          ^                     ^                      
  E  E  E  E  S S S S     E  E   E  E  E  E     E  S S E  E   E  S  S  
--5-----------7-------|---8------------5-----|--5-------------8-------|
--5--0--------5-5-7-7-|--10--8--10--8--6--5--|--6------6--8--10--8-10-|
--5-----5--7----------|--10------------------|--5--5-5-------10-------|
--5-------------------|----------------------|------------------------|


   ^                         ^                             NH                 
   E   S  S  E  E  E  S S    E  E  E  E   S  S  S  S       Q     Q    E  S S  
--10---------------6------|--6-----------10-------10-|--<>12---------------0-|
--11--11-11-10--8--6------|--3--------------11-13----|-------------------0---|
--10--------------------5-|--3--5-----8--10----------|----------------2------|
----------------------0---|--------0-----------------|----------11-----------|


                                                                 ^  ^ v  
  E  E  E  E  E  S S    S S S S E  S S S S S S    S S S S E  S S E  S S  
--5--0--5--0--5--7-7-|--9-9-5-5----7-7-9-9-5-5-|--7-7-5-5----7-7-5--5-5-|
--2--0-----2--5------|----------5--------------|----------5------5--5-5-|
--------2--------7---|------6------6-------6---|------6------6---6--6-6-|
---------------------|--7-------7------7-------|--7-------7------7--7-7-|


  ^                                                               
  E  E  E   E  E   E      E  E  E  E  E  E     E  E  E  E  E  E   
--0--0-----10--9------|---8--7--3--1--3--5--|-----------3--------|
--6---------------10--|------------------0--|-----0--------3--0--|
--7--------10---------|--10--------2--------|--0-----0-----0-----|
--0-----0----------0--|------0--------------|--0--------0-----0--|


  E  E  E  E  E  S S    E  E  E   E  E   E      E  E  E  E  E   E   
--5--------3---------|-----0-----10--9------|---8--7---------------|
-----3--0-----3--0-0-|------------------10--|---------8--6--8--10--|
--0-----0-----0------|--2--------10---------|--10------------------|
-----0-----0-----0---|--0-----0----------0--|------0-----0------0--|


     NH    NH    NH   NH    NH   NH      NH   NH   NH    NH    NH    NH  
     E     E     E    E     E    E       E    E    E     E     E     E   
-----0-------------------<>12-------|-----------------<>12-----------0--|
--<>12--------<>12--<>7-------------|------------<>7--------------<>12--|
--------<>12-------------------<>7--|-------<>5---------------11--------|
------------------------------------|--<>7------------------<>12--------|


   E  E  E   E  E   E      E  E  E  E  E  E     E  E  E  E  E  E   
------0-----10--9------|---8--7--3--1--3--5--|-----------3--------|
--10---------------10--|------------------0--|-----0--------3--0--|
------------10---------|--10--------2--------|--0-----0-----0-----|
---0-----0----------0--|------0--------------|--0--------0-----0--|


                        >              >     >               
  E  E  E  S S E  E     E  E  E  E  E  E     Q    Q    Q     
--5--------3-3-L-----|-----0-----1--0-----|------------3----|
-----3--0------0--1--|--3-----3--------3--|--1---------1----|
--0-----0------0--2--|--3-----------L--3--|--2----2---------|
-----0-----0---L-----|--------------------|-----------------|


  ^                                         ^                  
  E  E  E  E  E  E     E  E  E  E  E  E     E  E  E  E  E  E   
--2--2-----------2--|--0--------2--------|--3--3-----------3--|
--3-----3-----3-----|-----3--------3-----|--3-----3-----3-----|
--2-----2--2--2-----|--2-----2-----2--2--|--2-----2--2--2-----|
--0--0-----0-----0--|-----0-----0-----0--|--0--0-----0-----0--|


  E  E  E  S S S S S S    
--0--------2-2----------||
-----3---------3-3-----*||
--2-----2------2---2-2-*||
-----0-----0-------0----||




Duration Legend
---------------
W - whole
H - half
Q - quarter
E - 8th
S - 16th
T - 32nd
X - 64th
. - note dotted
|-n-|  - n-tuplets


Tablature Legend
----------------
L - tied note
x - dead note
g - grace note
(n) - ghost note
> - accentuded note
NH - natural harmonic
AH - artificial harmonic
TH - tapped harmonic
SH - semi harmonic
PH - pitch harmonic
h - hammer on
p - pull off
b - bend
br - bendRelease
pb - preBend
pbr - preBendRelease
brb - bendReleaseBend
\n/ - tremolo bar dip
\n - tremolo bar dive
-/n - tremolo bar Release up
/n\ - tremolo bar inverted dip
/n - tremolo bar return
-\n - tremolo bar Release down
S - shift slide
s - legato slide
/ -  slide into from below or out of upwards
\ -  slide into from above or out of downwards
~ - vibrato
W - wide vibrato
tr - trill
TP - tremolo picking
T - tapping
S - slap
P - pop
< - fade in
^ - brush up
v - brush down
Login or Register to remove this ad.

1 comment on Silence Before the Storm

midi sounds cool, everything

5

midi sounds cool, everything seems legit, now I just wish I had a uke to play this on :D