Ads

Mi'ihen Highway (Final Fantasy X) Guitar Tab

Submitted: Nov 06, 2014 by epicanthic

5
Average: 5 (2 votes)
Download | Listen
Game: Final Fantasy X
Composer(s): Nobuo Uematsu, Junya Nakano, Masashi Hamauzu
Style: 2 or more instruments, Transcription
Series: Final Fantasy

AutoScroll: Slow | Medium | Fast
Final Fantasy X
Mi'ihen Highway
Composed by Nobuo Uematsu
Tabbed by epicanthic
5/12/2014

Standard tuning
3 guitars

Guitar 1
Nylon Guitar
     W                   H        E  T S. E  T S.    Q    E  E  H           W                 
E||-------------------|---------------------------|----------------------|-------------------|
B||-------------------|---------------------------|----------------------|-------------------|
G||-------------------|---------------------------|----------------------|-------------------|
D||-------------------|----------------2--1--L-2--|--L----L--------------|-------------------|
A||-------------------|----------------4--2--L-4--|--L----L--------------|-------------------|
E||-------------------|---------------------------|----------------------|-------------------|


  W                   H        E  T S. E  T S.    Q    E  T E  T S. S. E  T S.    H.           Q      
-------------------|---------------------------|-------------------------------|---------------------|
-------------------|---------------------------|-------------------------------|---------------5s----|
-------------------|---------------------------|-------------------------------|---------------------|
-------------------|----------------2--1--L-2--|--L----L--L-L--L----2--1--L-2--|---------------------|
-------------------|-------------------2--L-4--|--L----L--L-L--L----4--2--L-4--|---------------------|
-------------------|----------------4----------|-------------------------------|---------------------|


    Q    Q     Q    Q        Q    Q      Q     Q        Q    Q     Q    Q        W                 
|-------------------------|--------------------------|------------------------|-------------------|
|---2----2s----5----5s----|--8----8s----11----11s----|--8----8s----5----5s----|--2----------------|
|*------------------------|--------------------------|------------------------|-------------------|
|*------------------------|--------------------------|------------------------|-------------------|
|-------------------------|--------------------------|------------------------|-------------------|
|-------------------------|--------------------------|------------------------|-------------------|


  H.           Q        Q    Q     Q    Q        Q    Q      Q    Q        Q    Q      Q     Q      
---------------------|------------------------|-------------------6s----|--9----9s----12----12s----|
---------------5s----|--2----2s----5----5s----|--8----8s----11----------|--------------------------|
---------------------|------------------------|-------------------------|--------------------------|
---------------------|------------------------|-------------------------|--------------------------|
---------------------|------------------------|-------------------------|--------------------------|
---------------------|------------------------|-------------------------|--------------------------|


  W                   H.           Q        Q    Q     Q    Q         Q    Q     Q    Q      
--9----------------|--L------------------|------------------------|-------------------------|
-------------------|---------------------|------------------------|-------------------------|
-------------------|---------------------|------------------------|-------------------------|
-------------------|---------------------|------------------------|--------5s----8----8s----|
-------------------|---------------7s----|--4----4s----7----7s----|--10---------------------|
-------------------|---------------------|------------------------|-------------------------|


  Q     Q     Q    Q        W                   H.           Q        Q    Q     Q    Q      
-------------------------|-------------------|---------------------|------------------------|
-------------------------|-------------------|---------------------|------------------------|
-------------------------|-------------------|---------------------|------------------------|
--5----------------------|-------------------|---------------------|------------------------|
-------10s----7----7s----|--4----------------|--L------------7s----|--4----4s----7----7s----|
-------------------------|-------------------|---------------------|------------------------|


   Q    Q     Q    Q         Q     Q      Q     Q         W                   W                 
-------------------------|----------------------------|--------------------|-------------------|
-------------------------|----------------------------|--------------------|-------------------|
-------------------------|----------------------------|--------------------|-------------------|
--------5s----8----8s----|--11----11s----14----14s----|--11----------------|-------------------|
--10---------------------|----------------------------|--------------------|-------------------|
-------------------------|----------------------------|--------------------|-------------------|


  |--3--|  |--3--|  |--3--|  |--3--|     |--3--|  |--3--|  |--3--|  |--3--|   
  E  E  E  E  E  E  E  E  E  E  E  E     E  E  E  E  E  E  E  E  E  E  E  E   
-----------0--------0--------0--------|-----------0--------0--------0--------|
--------0-----0--------0--------0-----|--------0-----0--------0--------0-----|
-----2-----------2--------2--------2--|-----2-----------2--------2--------2--|
--3-----------------------------------|--2-----------------------------------|
--------------------------------------|--------------------------------------|
--------------------------------------|--------------------------------------|


  |--3--|  |--3--|  |--3--|  |--3--|     |--3--|  |--3--|  |--3--|  |--3--|   
  E  E  E  E  E  E  E  E  E  E  E  E     E  E  E  E  E  E  E  E  E  E  E  E   
-----------0--------0--------0--------|-----------0--------0--------0--------|
--------0-----0--------0--------0-----|--------0-----0--------0--------0-----|
-----5-----------5--------5--------5--|-----5-----------5--------5--------5--|
--0-----------------------------------|--2-----------------------------------|
--------------------------------------|--------------------------------------|
--------------------------------------|--------------------------------------|


  |--3--|  |--3--|  |--3--|  |--3--|     |--3--|  |--3--|  |--3--|  |--3--|   
  E  E  E  E  E  E  E  E  E  E  E  E     E  E  E  E  E  E  E  E  E  E  E  E   
-----------0--------0--------0--------|-----------0--------0--------0--------|
--------0-----0--------0--------0-----|--------0-----0--------0--------0-----|
-----3-----------3--------3--------3--|-----3-----------3--------3--------3--|
--------------------------------------|--------------------------------------|
--------------------------------------|--------------------------------------|
--3-----------------------------------|--2-----------------------------------|


  |--3--|  |--3--|  |--3--|  |--3--|     |--3--|  |--3--|  |--3--|  |--3--|   
  E  E  E  E  E  E  E  E  E  E  E  E     E  E  E  E  E  E  E  E  E  E  E  E   
-----------0--------0--------0--------|-----------0--------0--------0--------|
--------0-----0--------0--------0-----|--------0-----0--------0--------0-----|
-----2-----------2--------2--------2--|-----2-----------2--------2--------2--|
--------------------------------------|--------------------------------------|
--------------------------------------|--3-----------------------------------|
--1-----------------------------------|--------------------------------------|


  |--3--|  |--3--|  |--3--|  |--3--|     |--3--|  |--3--|  |--3--|  |--3--|   
  E  E  E  E  E  E  E  E  E  E  E  E     E  E  E  E  E  E  E  E  E  E  E  E   
-----------0--------0--------0--------|-----------0--------0--------0--------|
--------3-----3--------3--------3-----|--------2-----2--------2--------2-----|
-----0-----------0--------0--------0--|-----0-----------0--------0--------0--|
--------------------------------------|--------------------------------------|
--2-----------------------------------|--1-----------------------------------|
--------------------------------------|--------------------------------------|


                                                                                      v
  |--3--|  |--3--|  |--3--|  |--3--|     |--3--|  |--3--|  |--3--|  |--3--|     |-3-|
  E  E  E  E  E  E  E  E  E  E  E  E     E  E  E  E  E  E  E  E  E  E  E  E     S S S E  H.                                
-----------3--------3--------3--------|-----------2--------2--------2--------|--2-----2--L------------|--L----------------|
-----1-----------1--------1--------1--|-----1-----------1--------1--------1--|------1-L--L------------|--L----------------|
--------4-----4--------4--------4-----|--------4-----4--------4--------4-----|----4-------------------|-------------------|
--------------------------------------|--------------------------------------|--------4--L------------|--L----------------|
--0-----------------------------------|--0-----------------------------------|--------0--L------------|--L----------------|
--------------------------------------|--------------------------------------|------------------------|-------------------|


  W                   W                   W                 
-------------------|-------------------|-------------------|---------------------||
-------------------|-------------------|-------------------|---------------5-----||
-------------------|-------------------|-------------------|--------------------*||
-------------------|-------------------|-------------------|--------------------*||
-------------------|-------------------|-------------------|---------------------||
-------------------|-------------------|-------------------|---------------------||


Guitar 2
Nylon Guitar
     W                   W                   W                   W                 
E||-------------------|-------------------|-------------------|-------------------|
B||-------------------|-------------------|-------------------|-------------------|
G||-------------------|-------------------|-------------------|-------------------|
D||-------------------|-------------------|-------------------|-------------------|
A||-------------------|-------------------|-------------------|-------------------|
E||-------------------|-------------------|-------------------|-------------------|


  Q    Q    H           Q    Q    H           Q    Q    Q    Q       Q    Q    H         
---------------------|---------------------|----------------------|---------------------|
---------------------|---------------------|----------------------|---------------------|
---------------------|---------------------|----------------------|---------------------|
---------------------|---------------------|-----------------2----|---------------------|
--4----2----4--------|--4----2----4--------|--4----2----4---------|--4----2----4--------|
---------------------|---------------------|----------------------|---------------------|


    Q    Q    Q    Q       Q    Q    Q    Q       Q    Q    Q    Q       Q    Q    Q    Q     
|-----------------------|----------------------|----------------------|----------------------|
|-----------------------|----------------------|----------------------|----------------------|
|*----------------------|----------------------|----------------------|----------------------|
|*----------------------|----------------------|-----------------2----|----------------------|
|---4----2----4---------|--4----2----4---------|--4----2----4---------|--4----2----4---------|
|------------------4----|-----------------4----|----------------------|-----------------4----|


  Q    Q    Q    Q       Q    Q    Q    Q       Q    Q    Q    Q       Q    Q    Q    Q     
----------------------|----------------------|----------------------|----------------------|
----------------------|----------------------|----------------------|----------------------|
----------------------|----------------------|----------------------|----------------------|
----------------------|----------------------|----------------------|-----------------2----|
--4----2----4---------|--4----2----4---------|--4----2----4---------|--4----2----4---------|
-----------------4----|-----------------4----|-----------------4----|----------------------|


  Q    Q    Q    Q       Q    Q    Q    Q       Q    Q    Q    Q       Q    Q    Q    Q     
----------------------|----------------------|----------------------|----------------------|
----------------------|----------------------|----------------------|----------------------|
----------------------|----------------------|----------------------|----------------------|
----------------------|----------------------|----------------------|----------------------|
--4----2----4---------|--4----2----4---------|--4----2----4---------|--4----2----4---------|
-----------------4----|-----------------4----|-----------------4----|-----------------4----|


  Q    Q    Q    Q       Q    Q    Q    Q       Q    Q    Q    Q       Q    Q    Q    Q     
----------------------|----------------------|----------------------|----------------------|
----------------------|----------------------|----------------------|----------------------|
----------------------|----------------------|----------------------|----------------------|
-----------------2----|----------------------|----------------------|----------------------|
--4----2----4---------|--4----2----4---------|--4----2----4---------|--4----2----4---------|
----------------------|-----------------4----|-----------------4----|-----------------4----|


  Q    Q    Q    Q       Q    Q    Q    Q       Q    Q    Q    Q       Q    Q    Q    Q     
----------------------|----------------------|----------------------|----------------------|
----------------------|----------------------|----------------------|----------------------|
----------------------|----------------------|----------------------|----------------------|
----------------------|-----------------2----|----------------------|----------------------|
--4----2----4---------|--4----2----4---------|--4----2----4---------|--4----2----4---------|
-----------------4----|----------------------|-----------------4----|-----------------4----|


  W                   W                   W                   W                 
-------------------|-------------------|-------------------|-------------------|
-------------------|-------------------|-------------------|-------------------|
-------------------|-------------------|-------------------|-------------------|
-------------------|-------------------|-------------------|-------------------|
-------------------|-------------------|-------------------|-------------------|
-------------------|-------------------|-------------------|-------------------|


  W                   W                   W                   W                 
-------------------|-------------------|-------------------|-------------------|
-------------------|-------------------|-------------------|-------------------|
-------------------|-------------------|-------------------|-------------------|
-------------------|-------------------|-------------------|-------------------|
-------------------|-------------------|-------------------|-------------------|
-------------------|-------------------|-------------------|-------------------|


  W                   W                   W                   W                   W                   W                 
-------------------|-------------------|-------------------|-------------------|-------------------|-------------------|
-------------------|-------------------|-------------------|-------------------|-------------------|-------------------|
-------------------|-------------------|-------------------|-------------------|-------------------|-------------------|
-------------------|-------------------|-------------------|-------------------|-------------------|-------------------|
-------------------|-------------------|-------------------|-------------------|-------------------|-------------------|
-------------------|-------------------|-------------------|-------------------|-------------------|-------------------|


  Q    Q    H           Q    Q    H           Q    Q    Q    Q       Q    Q    H           
---------------------|---------------------|----------------------|----------------------||
---------------------|---------------------|----------------------|----------------------||
---------------------|---------------------|-----------------0----|---------------------*||
--2----0----2--------|--2----0----2--------|--2----0----2---------|--2----0----2--------*||
---------------------|---------------------|----------------------|----------------------||
---------------------|---------------------|----------------------|----------------------||


Guitar 3
Steel Guitar
     S S. Q    Q    Q    S.    E  T Q    Q    Q    S.    E  T Q    Q    Q    S.    E  T Q    Q    Q    S.  
E||-------2----2----2----2--|--L--L-2----2----2----2--|--L--L-2----2----2----2--|--L--L-2----2----2----2--|
B||-------2----2----2----2--|--L--L-2----2----2----2--|--L--L-2----2----2----2--|--L--L-2----2----2----2--|
G||-------4----4----4----4--|--L--L-4----4----4----4--|--L--L-4----4----4----4--|--L--L-4----4----4----4--|
D||-------------------------|-------------------------|-------------------------|-------------------------|
A||-------------------------|-------------------------|-------------------------|-------------------------|
E||-------------------------|-------------------------|-------------------------|-------------------------|


  E  T Q    Q    Q    S.    E  T Q    Q    Q    S.    E  T Q    Q    Q    S.    E  T Q    Q    Q    S.  
--L--L-2----2----2----2--|--2--L-2----2----2----2--|--L--L-2----2----2----2--|--L--L-2----2----2----2--|
--L--L-2----2----2----2--|--2--L-2----2----2----2--|--L--L-2----2----2----2--|--L--L-2----2----2----2--|
--L--L-4----4----4----4--|--4--L-4----4----4----4--|--L--L-4----4----4----4--|--L--L-4----4----4----4--|
-------------------------|-------------------------|-------------------------|-------------------------|
-------------------------|-------------------------|-------------------------|-------------------------|
-------------------------|-------------------------|-------------------------|-------------------------|


    E  T Q    Q    Q    S.    E  T Q    Q    Q    S.    E  T Q    Q    Q    S.    E  T Q    Q    Q    S.  
|---L--L-2----2----2----2--|--2--L-2----2----2----2--|--L--L-2----2----2----2--|--2--L-2----2----2----2--|
|---L--L-2----2----2----2--|--2--L-2----2----2----2--|--L--L-2----2----2----2--|--2--L-2----2----2----2--|
|*--L--L-4----4----4----4--|--4--L-4----4----4----4--|--L--L-4----4----4----4--|--4--L-4----4----4----4--|
|*-------------------------|-------------------------|-------------------------|-------------------------|
|--------------------------|-------------------------|-------------------------|-------------------------|
|--------------------------|-------------------------|-------------------------|-------------------------|


  E  T Q    Q    Q    S.    E  T Q    Q    Q    S.    E  T Q    Q    Q    S.    E  T Q    Q    Q    S.  
--L--L-2----2----2----2--|--L--L-2----2----2----2--|--2--L-2----2----2----2--|--L--L-2----2----2----2--|
--L--L-2----2----2----2--|--L--L-2----2----2----2--|--2--L-2----2----2----2--|--L--L-2----2----2----2--|
--L--L-4----4----4----4--|--L--L-4----4----4----4--|--4--L-4----4----4----4--|--L--L-4----4----4----4--|
-------------------------|-------------------------|-------------------------|-------------------------|
-------------------------|-------------------------|-------------------------|-------------------------|
-------------------------|-------------------------|-------------------------|-------------------------|


  E  T Q    Q    Q    S.    E  T Q    Q    Q    S.    E  T Q    Q    Q    S.    E  T Q    Q    Q    S.  
--2--L-2----2----2----2--|--L--L-2----2----2----2--|--L--L-2----2----2----2--|--2--L-2----2----2----2--|
--2--L-2----2----2----2--|--L--L-2----2----2----2--|--L--L-2----2----2----2--|--2--L-2----2----2----2--|
--4--L-4----4----4----4--|--L--L-4----4----4----4--|--L--L-4----4----4----4--|--4--L-4----4----4----4--|
-------------------------|-------------------------|-------------------------|-------------------------|
-------------------------|-------------------------|-------------------------|-------------------------|
-------------------------|-------------------------|-------------------------|-------------------------|


  E  T Q    Q    Q    S.    E  T Q    Q    Q    S.    E  T Q    Q    Q    S.    E  T Q    Q    Q    S.  
--L--L-2----2----2----2--|--L--L-2----2----2----2--|--2--L-2----2----2----2--|--L--L-2----2----2----2--|
--L--L-2----2----2----2--|--L--L-2----2----2----2--|--2--L-2----2----2----2--|--L--L-2----2----2----2--|
--L--L-4----4----4----4--|--L--L-4----4----4----4--|--4--L-4----4----4----4--|--L--L-4----4----4----4--|
-------------------------|-------------------------|-------------------------|-------------------------|
-------------------------|-------------------------|-------------------------|-------------------------|
-------------------------|-------------------------|-------------------------|-------------------------|


  E  T Q    Q    Q    S.    E  T Q    Q    Q    S.    E  T Q    Q    Q    S.    E  T Q    Q    Q    S.  
--L--L-2----2----2----2--|--L--L-2----2----2----2--|--2--L-2----2----2----2--|--2--L-2----2----2----2--|
--L--L-2----2----2----2--|--L--L-2----2----2----2--|--2--L-2----2----2----2--|--2--L-2----2----2----2--|
--L--L-4----4----4----4--|--L--L-4----4----4----4--|--4--L-4----4----4----4--|--4--L-4----4----4----4--|
-------------------------|-------------------------|-------------------------|-------------------------|
-------------------------|-------------------------|-------------------------|-------------------------|
-------------------------|-------------------------|-------------------------|-------------------------|


  W                   W                   W                   W                 
-------------------|-------------------|-------------------|-------------------|
-------------------|-------------------|-------------------|-------------------|
-------------------|-------------------|-------------------|-------------------|
-------------------|-------------------|-------------------|-------------------|
-------------------|-------------------|-------------------|-------------------|
-------------------|-------------------|-------------------|-------------------|


  W                   W                   W                   W                 
-------------------|-------------------|-------------------|-------------------|
-------------------|-------------------|-------------------|-------------------|
-------------------|-------------------|-------------------|-------------------|
-------------------|-------------------|-------------------|-------------------|
-------------------|-------------------|-------------------|-------------------|
-------------------|-------------------|-------------------|-------------------|


  W                   W                   W                   W                   W                   W                 
-------------------|-------------------|-------------------|-------------------|-------------------|-------------------|
-------------------|-------------------|-------------------|-------------------|-------------------|-------------------|
-------------------|-------------------|-------------------|-------------------|-------------------|-------------------|
-------------------|-------------------|-------------------|-------------------|-------------------|-------------------|
-------------------|-------------------|-------------------|-------------------|-------------------|-------------------|
-------------------|-------------------|-------------------|-------------------|-------------------|-------------------|


  E  T Q    Q    Q    S.    E  T Q    Q    Q    S.    E  T Q    Q    Q    S.    E  T Q    Q    Q    S.    
-------5----5----5----5--|--L--L-5----5----5----5--|-------5----5----5----5--|--L--L-5----5----5----5---||
-------5----5----5----5--|--L----5----5----5----5--|-------5----5----5----5--|--L--L-5----5----5----5---||
-------7----7----7----7--|--L--L-7----7----7----7--|-------7----7----7----7--|--L--L-7----7----7----7--*||
-------------------------|-------------------------|-------------------------|-------------------------*||
-------------------------|-------------------------|-------------------------|--------------------------||
-------------------------|-------------------------|-------------------------|--------------------------||




Duration Legend
---------------
W - whole
H - half
Q - quarter
E - 8th
S - 16th
T - 32nd
X - 64th
. - note dotted
|-n-|  - n-tuplets


Tablature Legend
----------------
L - tied note
x - dead note
g - grace note
(n) - ghost note
> - accentuded note
NH - natural harmonic
AH - artificial harmonic
TH - tapped harmonic
SH - semi harmonic
PH - pitch harmonic
h - hammer on
p - pull off
b - bend
br - bendRelease
pb - preBend
pbr - preBendRelease
brb - bendReleaseBend
\n/ - tremolo bar dip
\n - tremolo bar dive
-/n - tremolo bar Release up
/n\ - tremolo bar inverted dip
/n - tremolo bar return
-\n - tremolo bar Release down
S - shift slide
s - legato slide
/ -  slide into from below or out of upwards
\ -  slide into from above or out of downwards
~ - vibrato
W - wide vibrato
tr - trill
TP - tremolo picking
T - tapping
S - slap
P - pop
< - fade in
^ - brush up
v - brush down
Login or Register to remove this ad.

1 comment on Mi'ihen Highway

Cool !

Cool !