Ads

Daughter Of The High Summoner (Final Fantasy X) Guitar Tab

Submitted: Nov 10, 2009 by ThulsaDoom

4.333335
Average: 4.3 (6 votes)
Download | Listen
Game: Final Fantasy X
Composer(s): Nobuo Uematsu, Junya Nakano, Masashi Hamauzu
Style: 2 or more instruments, Arrangement, Fingerstyle
Series: Final Fantasy

AutoScroll: Slow | Medium | Fast
Daughter Of The High Summoner 
arranged by ThulsaDoom 


Composer Nobuo Uematsu
Game Final Fantasy X 
Copyright: 2001 Square Co., Ltd

Tuning: Standard 
Capo: 0

Tab by ThulsaDoom 
Date: 11/9/09

GTR1 = Guitar 1
GTR2= Guitar 2


----------------------------------------------------------------------------------------------------

GTR1
e--------------------------------------------------------------------------------------------|
B-----1---1---1---1--------------1---1---1---1------------1---1---1---1----------------------|
G---2---2---2---2----2---------2---2---2---2----2-------2---2---2---2-----2-----2-0----------|
D---0-3-0-3-0-3-0-3--0---------0-3-0-3-0-3-0-3--0-------0-3-0-3-0-3-0-3---0-----0------------|
A---------------------------------------------------------------------------------3----------|
E--------------------------------------------------------------------------------------------|


GTR2
e--------------------------------------------------1-3--5-------8---------3------------------|
B--------------------------------------------------------------------------------------------|
G--------------------------------------------------------------------------------------------|
D-------------------------------------------------------0-----------------0------------------|
A--------------------------------------------------------------------------------------------|
E--------------------------------------------------------------------------------------------|

----------------------------------------------------------------------------------------------------


----------------------------------------------------------------------------------------------------

GTR1
e--------------------------------------------------------------------------------------------|
B---------------------------------------------1---1---1---1----------------------------------|
G------2---2---2---2--------------------0---2---2---2---2----2-----2-0-------2---2---2---2--1|
D----3-0-3-0-3-0-3-0---3--------------3-----0-3-0-3-0-3-0-3--0-----0-------3-0-3-0-3-0-3-0--3|
A----1---1---1---1-----1--------------1-3----------------------------3-----1---1---1---1-----|
E--------------------------------------------------------------------------------------------|


GTR2
e----5-------3---1------------1--1----3-----5-------8--------3-----1-0-----3-----------------|
B----3-----------------3-------------------------------------1-------------2-----------------|
G----------------------2---------------------------------------------------------------------|
D-------------------------------------0-----0------------------------------------------------|
A--------------------------------------------------------------------------1-----------------|
E--------------------------------------------------------------------------------------------|

---------------------------------------------------------------------------------------------------




----------------------------------------------------------------------------------------------------

GTR1
e--------------------------------------------------------------------------------------------|
B------------1---1---1---1--------------------------------------------------1---1---1---1----|
G-----0----2---2---2---2-----2------2-0-------2---2---2---2-----------0---2---2---2---2-----2|
D---3------0-3-0-3-0-3-0-3---0------0-------3-0-3-0-3-0-3-0---3-----3-----0-3-0-3-0-3-0-3---0|
A---1-3-------------------------------3-----1---1---1---1-----1-----1-3----------------------|
E--------------------------------------------------------------------------------------------|


GTR2
e-1-3------5-------8---------3--------------5-------3---1-------1-1-3-----5-------8--------12|
B-------------------------------------------------------------3------------------------------|
G-------------------------------------------------------------2------------------------------|
D----------0-----------------0--------------------------------------------0-----------------0|
A--------------------------------------------------------------------------------------------|
E--------------------------------------------------------------------------------------------|

---------------------------------------------------------------------------------------------------


----------------------------------------------------------------------------------------------------

GTR1
e--------------------------------------------------------------------------------------------|
B----------------------------------------------------1---1---1---1---------------------------|
G---2--0----2---2---2---2------------------0 ------2---2---2---2------2-----------2--0-------|
D---0-----3-0-3-0-3-0-3-0---3-----------3----------0-3-0-3-0-3-0-3----0-----------0----------|
A------3--1---1---1---1-----1-----------1--3-----------------------------------------3-------|
E--------------------------------------------------------------------------------------------|


GTR2
e-8------10--------------------10---8---6----------5----------------------8--5----0----------|
B--------------------------------------------------------------------------------------------|
G--------------------------------------------------------------------------------------------|
D--------------------------------------------------0------------------------------0----------|
A--------------------------------------------------------------------------------------------|
E--------------------------------------------------------------------------------------------|

---------------------------------------------------------------------------------------------------


----------------------------------------------------------------------------------------------------

GTR1
e--------------------------------------------------------------------------------------------|
B--------------------------------------------------------------------------------------------|
G------2---2---2---2---------------------0---0---0---0------------------2---2---2---2--------|
D----3-0-3-0-3-0-3-0---3---------------2---2---2---2----2-------------3---3---3---3----2-----|
A----1---1---1---1-----1---------------0-3-0-3-0-3-0-3--0-------------1----------------0-----|
E--------------------------------------------------------------------------------------------|


GTR2
e---------------------------5--3-------3-5------------------5--12--8--10------------0-1-3----|
B----3-6-6------------------------6--------1-------------------------------------------------|
G------------------------------------------2-------------------------------------------------|
D--------3-----------------------------0-------------------------------8---------------------|
A------------------------------------------0--------------------------------------------0----|
E--------------------------------------------------------------------------------------------|

---------------------------------------------------------------------------------------------------



----------------------------------------------------------------------------------------------------

GTR1
e--------------------------------------------------------------------------------------------|
B--------------------------------------------------------------------------------------------|
G---0---0---0---0---------------------------0---0---0---0-----3---3---3---3------------------|
D-----2---2---2------0--3---3---3---3-----2---2---2---2-----7---7---7---7--------------------|
A--------------------1----5---5---5-------0-----------------5--------------------------------|
E--------------------3-----------------------------------------------------------------------|


GTR2
e-----------5-8-5---------5---------3-1---3-5------------------------------------------------|
B--------------------3------------------------1------1------3--------------------------------|
G--------------------2------------------------2----------------------------------------------|
D-----------------------------------------------------------0--------------------------------|
A--------------------1--------------------0---0----------------------------------------------|
E--------------------------------------------------------------------------------------------|

---------------------------------------------------------------------------------------------------



----------------------------------------------------------------------------------------------------

GTR1
e--------------------------------------------------------------------------------------------|
B--------------------------------------------------------------------------------------------|
G----3---3---3---3---------------------------------------------------------------------------|
D--7---7---7---7----7------------------------------------------------------------------------|
A--5----------------5------------------------------------------------------------------------|
E--------------------------------------------------------------------------------------------|


GTR2
e--------------------------------------------------------------------------------------------|
B--------------------------------------------------------------------------------------------|
G--------------------------------------------------------------------------------------------|
D--------------------------------------------------------------------------------------------|
A--------------------------------------------------------------------------------------------|
E--------------------------------------------------------------------------------------------|

---------------------------------------------------------------------------------------------------



----------------------------------------------------------------------------------------------------
GTR1
e--------------------------------------------------------------------------------------------|
B---1---1---1---1----------------------------------------------------------------------------|
G---2---2---2---2-----2-----2-0--------------------------------------------------------------|
D---0-3-0-3-0-3-0-3---0-----0----------------------------------------------------------------|
A-----------------------------3--------------------------------------------------------------|
E--------------------------------------------------------------------------------------------|



GTR2
e---1-3--5-------8---------3-----------------------------------------------------------------|
B--------------------------------------------------------------------------------------------|
G--------------------------------------------------------------------------------------------|
D---0-----------------0----------------------------------------------------------------------|
A--------------------------------------------------------------------------------------------|
E--------------------------------------------------------------------------------------------|

---------------------------------------------------------------------------------------------------


GTR1
e--------------------------------------------------------------------------------------------|
B---------------------------------------------1---1---1---1----------------------------------|
G------2---2---2---2--------------------0---2---2---2---2----2-----2-0-------2---2---2---2--1|
D----3-0-3-0-3-0-3-0---3--------------3-----0-3-0-3-0-3-0-3--0-----0-------3-0-3-0-3-0-3-0--3|
A----1---1---1---1-----1--------------1-3----------------------------3-----1---1---1---1-----|
E--------------------------------------------------------------------------------------------|


GTR2
e----5-------3---1------------1--1----3-----5-------8--------3-----1-0-----3-----------------|
B----3-----------------3-------------------------------------1-------------2-----------------|
G----------------------2---------------------------------------------------------------------|
D-------------------------------------0-----0------------------------------------------------|
A--------------------------------------------------------------------------1-----------------|
E--------------------------------------------------------------------------------------------|

---------------------------------------------------------------------------------------------------




----------------------------------------------------------------------------------------------------

GTR1
e--------------------------------------------------------------------------------------------|
B------------1---1---1---1--------------------------------------------------1---1---1---1----|
G-----0----2---2---2---2-----2------2-0-------2---2---2---2-----------0---2---2---2---2-----2|
D---3------0-3-0-3-0-3-0-3---0------0-------3-0-3-0-3-0-3-0---3-----3-----0-3-0-3-0-3-0-3---0|
A---1-3-------------------------------3-----1---1---1---1-----1-----1-3----------------------|
E--------------------------------------------------------------------------------------------|


GTR2
e-1-3------5-------8---------3--------------5-------3---1-------1-1-3-----5-------8--------12|
B-------------------------------------------------------------3------------------------------|
G-------------------------------------------------------------2------------------------------|
D----------0-----------------0--------------------------------------------0-----------------0|
A--------------------------------------------------------------------------------------------|
E--------------------------------------------------------------------------------------------|

---------------------------------------------------------------------------------------------------


----------------------------------------------------------------------------------------------------

GTR1
e--------------------------------------------------------------------------------------------|
B----------------------------------------------------1---1---1---1---------------------------|
G---2--0----2---2---2---2------------------0 ------2---2---2---2------2-----------2--0-------|
D---0-----3-0-3-0-3-0-3-0---3-----------3----------0-3-0-3-0-3-0-3----0-----------0----------|
A------3--1---1---1---1-----1-----------1--3-----------------------------------------3-------|
E--------------------------------------------------------------------------------------------|


GTR2
e-8------10--------------------10---8---6----------5----------------------8--5----0----------|
B--------------------------------------------------------------------------------------------|
G--------------------------------------------------------------------------------------------|
D--------------------------------------------------0------------------------------0----------|
A--------------------------------------------------------------------------------------------|
E--------------------------------------------------------------------------------------------|

---------------------------------------------------------------------------------------------------


----------------------------------------------------------------------------------------------------

GTR1
e--------------------------------------------------------------------------------------------|
B--------------------------------------------------------------------------------------------|
G------2---2---2---2---------------------0---0---0---0------------------2---2---2---2--------|
D----3-0-3-0-3-0-3-0---3---------------2---2---2---2----2-------------3---3---3---3----2-----|
A----1---1---1---1-----1---------------0-3-0-3-0-3-0-3--0-------------1----------------0-----|
E--------------------------------------------------------------------------------------------|


GTR2
e---------------------------5--3-------3-5------------------5--12--8--10------------0-1-3----|
B----3-6-6------------------------6--------1-------------------------------------------------|
G------------------------------------------2-------------------------------------------------|
D--------3-----------------------------0-------------------------------8---------------------|
A------------------------------------------0--------------------------------------------0----|
E--------------------------------------------------------------------------------------------|

---------------------------------------------------------------------------------------------------



----------------------------------------------------------------------------------------------------

GTR1
e--------------------------------------------------------------------------------------------|
B--------------------------------------------------------------------------------------------|
G---0---0---0---0---------------------------0---0---0---0-----3---3---3---3------------------|
D-----2---2---2------0--3---3---3---3-----2---2---2---2-----7---7---7---7--------------------|
A--------------------1----5---5---5-------0-----------------5--------------------------------|
E--------------------3-----------------------------------------------------------------------|


GTR2
e-----------5-8-5---------5---------3-1---3-5------------------------------------------------|
B--------------------3------------------------1------1------3--------------------------------|
G--------------------2------------------------2----------------------------------------------|
D-----------------------------------------------------------0--------------------------------|
A--------------------1--------------------0---0----------------------------------------------|
E--------------------------------------------------------------------------------------------|

---------------------------------------------------------------------------------------------------



----------------------------------------------------------------------------------------------------

GTR1
e--------------------------------------------------------------------------------------------|
B--------------------------------------------------------------------------------------------|
G----3---3---3---3---------------------------------------------------------------------------|
D--7---7---7---7----7------------------------------------------------------------------------|
A--5----------------5------------------------------------------------------------------------|
E--------------------------------------------------------------------------------------------|


GTR2
e--------------------------------------------------------------------------------------------|
B--------------------------------------------------------------------------------------------|
G--------------------------------------------------------------------------------------------|
D--------------------------------------------------------------------------------------------|
A--------------------------------------------------------------------------------------------|
E--------------------------------------------------------------------------------------------|

---------------------------------------------------------------------------------------------------


Login or Register to remove this ad.

2 comments on Daughter Of The High Summoner

hey man great arrengment its

5

hey man great arrengment
its perfect ^^

Very nice! I forgot about

5

Very nice! I forgot about this version of the song.