Ads

Bravely Forward (Monster Arena) (Final Fantasy X) Guitar Tab

Submitted: Feb 03, 2020 by Dean Reano (Last updated: Feb 03, 2020)

0
Download | Listen
Game: Final Fantasy X
Composer(s): Nobuo Uematsu, Junya Nakano, Masashi Hamauzu
Style: Fingerstyle
Series: Final Fantasy

AutoScroll: Slow | Medium | Fast
Song: Bravely Forward (Monster Arena)
Composer: Nobuo Uematsu
Game: Final Fantasy X
Tab: Dean Reano
 
Capo 1 

    Q    Q    H       Q    Q    H       E   E   E   E   Q    E   E
 F|-----------------|-----------------|------------------------------|
 C|-----------------|-----------------|------------------------------|
G#|-----------------|-----------------|-------------2---0------------|
D#|-0----0----2-----|-0----0----2-----|-0---2---4------------4---2---|
A#|-----------------|-----------------|------------------------------|
 F|-----------------|-----------------|------------------------------|

    E   E   E   E   H       W        E   E   E   E   E   E   E   E     E   E   E   E   E   E   E   E    
 F|-----------------------|--------|---------------------------------|---------------------------------|
 C|-----------------------|--------|---------------------------------|---------------------------------|
G#|-----------------------|--------|---------------------------------|---------------------------------|
D#|-0-------0-------2-----|--------|---------------------------------|---------------------------------|
A#|-----------------------|--------|---------------------------------|---------------------------------|
 F|-----------------------|--------|-0-------0---0---X-------0---0---|-0-------0---0---X-------0---0---|

    E   E   E   E   E   E   E   E     E   E   E   E   E   E   E   E     Q    E   E   Q    E   E
 F|---------------------------------|---------------------------------|---------------------------|
 C|---------------------------------|---------------------------------|---------------------------|
G#|---------------------------------|---------------------------------|-2----2---2---2----0-------|
D#|---------------------------------|---------------------------------|-----------------------4---|
A#|---------------------------------|---------------------------------|---------------------------|
 F|-0-------0---0---X-------0---0---|-0-------0---0---X-------0---0---|-0----0---0---0----0---0---|

    Q    E   E   Q    E   E     Q    E   E   Q    E   E     Q    E   E   Q    E   E
 F|---------------------------|---------------------------|---------------------------|
 C|---------------------------|---------------------------|---------------------------|
G#|-0----2--------------------|-2----2---2---2----0-------|-0-------------------------|
D#|--------------4------------|-----------------------4---|------2--------------------|
A#|---------------------------|---------------------------|---------------------------|
 F|-0----0---0---0----0---0---|-0----0---0---0----0---0---|-0----0---0---0----0---0---|

    Q    E   E   Q    E   E     Q    E   E   Q    E   E     Q    E   E   Q    E   E
 F|---------------------------|---------------------------|---------------------------|
 C|---------------------------|---------------------------|---------------------------|
G#|-2----2---2---2----0-------|-0----2--------------------|-2----2---2---2----0-------|
D#|-----------------------4---|--------------4------------|-----------------------4---|
A#|---------------------------|---------------------------|---------------------------|
 F|-0----0---0---0----0---0---|-0----0---0---0----0---0---|-0----0---0---0----0---0---|

    Q    E   E   Q    E   E     Q    Q    Q    Q      Q    Q    Q    Q      E   E   E   E   Q    E   E
 F|---------------------------|-2----2----3---------|-2----2----3---------|--------------------------3---|
 C|---------------------------|-3----3--------------|-3----3--------------|-------------1---0------------|
G#|---------------------------|----------------0----|----------------0----|-----0---2------------2-------|
D#|-0----0-------2------------|-----------2---------|-----------2---------|-4-------4-------2------------|
A#|---------------------------|---------------------|---------------------|------------------------------|
 F|-0----0---0---0----0---0---|-2-------------------|-2-------------------|-2----------------------------|

    Q    Q    H       Q    Q    Q    Q      Q    Q    H       E   E   E   E   Q    E   E
 F|-2----2----3-----|---------------------|-----------------|-----0---2---5---3----2---0---|
 C|-3----3----------|-3----3----5---------|-3----3----5-----|-3----------------------------|
G#|-----------------|---------------------|-----------------|-----------------0------------|
D#|-----------2-----|-4----4----5---------|------4----5-----|------------------------------|
A#|-----------------|---------------------|-----------------|------------------------------|
 F|-2---------------|-2--------------3----|-2---------------|-2-------2--------------------|

    Q    Q    H       Q    Q    Q    Q      Q    Q    Q    Q      E   E   E   E   Q    E   S  S
 F|-----------------|-0----0----0---------|-0----0----0---------|-------------1---0--------------|
 C|-3----3----5-----|-0----0----1---------|-0----0----1---------|-0---1---3------------3---1-----|
G#|-----------------|-0----0----2----2----|-0----0----2----2----|-----------------------------2--|
D#|------4----5-----|---------------------|---------------------|-----------------2--------------|
A#|-----------------|---------------------|---------------------|---------2----------------------|
 F|-2---------------|---------------------|---------------------|-3------------------------------|

    Q    Q    H       Q    E   E   E   E   S  S  E     E   E   E   E   E   E   S  S  E
 F|-0----0----0-----|-0--------0---------------------|-----------------------------------|
 C|-0----0----1-----|------3-------0---3------0------|-0---0-------0---------------------|
G#|-0----0----2-----|----------------------2-----2---|---------2-------0-------2---------|
D#|-----------------|--------------------------------|---------------------4------4--0---|
A#|-----------------|-2------------------------------|-----------------------------------|
 F|-----------------|--------------0-----------------|-0---------------3-----------------|

    E   E   E   S  S  Q    E   S  S    E   E   E   E   E   E   E   S  S    Q    Q    Q    Q
 F|----------------------------------|-----------------------------------|-0----0----0---------|
 C|----------------------------------|-0---------------------------------|-0----0----1---------|
G#|---------0------------------------|---------0---2---------------------|-0----0----2----2----|
D#|-2---2----------2--4----4------4--|-----4-----------4---0---4---6--4--|---------------------|
A#|-------------2--------------2-----|-----------------------------------|---------------------|
 F|-0-----------------2--------------|-3-------3-------2-----------------|---------------------|

    Q    Q    Q    Q      ZE  E   E   E   Q    E   E     Q    Q    H       Q    E   E   E   E   E   E
 F|-0----0----0---------|-------------1---0------------|-0----0----0-----|-0--------0-------------------|
 C|-0----0----1---------|-0---1---3-------1----3---1---|-0----0----1-----|------3-------0---3-----------|
G#|-0----0----2----2----|------------------------------|-0----0----2-----|------------------------------|
D#|---------------------|------------------------------|-----------------|----------2-------0-----------|
A#|---------------------|------------------------------|-----------------|-2--------------------0---2---|
 F|---------------------|------------------------------|-----------------|------------------------------|

    E   E   E   E   E   E   E   E     Q.    S  S  Q    E   S  S    E   E   E   E   E   E   E   E
 F|---------------------------------|----------------------------|---------------------------------|
 C|-0---0-------0-------------------|----------------------------|-0-------------------------------|
G#|---------2-------0---------------|----------------------------|---------0---2-------------------|
D#|---------------------4-------0---|-2--------2--4----4------4--|-----4-----------4---0---0---0---|
A#|---------0-----------------------|-------2----------5---2-----|-----------------------------0---|
 F|-0---------------3-------2-------|-0-----------2--------------|-0-------3-------2---------------|

    Q    Q.    Q.      Q.    E   E   E   Q      Q    Q.    Q.      Q.    Q    E   E   E
 F|------------------|------------------------|------------------|--------------------1---|
 C|------------------|------------------------|------------------|-------0----1---3-------|
G#|------------------|---------------0---2----|------------0-----|-2----------------------|
D#|------2-----0-----|-2---------4------------|------4-----------|----------------0---3---|
A#|------3-----------|-------------------0----|------------------|-0-----2----3-----------|
 F|------0-----------|-0-----2-------3--------|------2-----3-----|------------------------|

    H.     Q
 F|-0-----------|
 C|-0-----------|
G#|-2-----------|
D#|-2-----------|
A#|-------------|
 F|-------------|

Login or Register to remove this ad.