Blitz Off (Final Fantasy X) Guitar Tab

Submitted: Jun 23, 2016 by BacardiBreezer

0
Download | Listen
Game: Final Fantasy X
Composer(s): Nobuo Uematsu, Junya Nakano, Masashi Hamauzu
Style: 2 or more instruments, Alternate picking, Artificial harmonics, Trill
Series: Final Fantasy

AutoScroll: Slow | Medium | Fast
Blitz Off
Final Fantasy X
Composed by Nobuo Uematsu
Tabbed by BB
5/26/16

TR = Trill     AH = Artificial Harmonic

Guitar 1 - rest for four measures

e|---------------------------------------------------------|
B|-------10---------10---------10--------10----/12-10------|
G|--7tr9-------7tr9-------7tr9------7tr9--------------9~---|
D|---------------------------------------------------------|
A|---------------------------------------------------------|
E|---------------------------------------------------------|
                                                      AH
e|---------------------------------------------------------|
B|-------10---------10---------10--------10----/12-10------|
G|--7tr9-------7tr9-------7tr9------7tr9--------------9~---|
D|---------------------------------------------------------|
A|---------------------------------------------------------|
E|---------------------------------------------------------|

e|---------------------------------------------------------|----------------------|
B|-------10---------10---------10--------10----/12-10------|-------10--------10---|
G|--7tr9-------7tr9-------7tr9------7tr9--------------9~---|--7tr9------7tr9------|
D|---------------------------------------------------------|----------------------|
A|---------------------------------------------------------|----------------------|
E|---------------------------------------------------------|----------------------|

*This section ends at 0:20, but can be played again at 1:16

Guitar 2 - rest for 3 measures

e|-----|-----|-----|---------------------|
B|-----|-----|-----|---------------------|
G|-----|-----|-----|---------------------|
D|-----|-----|-----|--2-0-2-----0--------|
A|-----|-----|-----|--------0-2-----0----|
E|-----|-----|-----|--------------3------|

e|----------------------------------------|-----------------------------------------|
B|----------------------------------------|-----------------------------------------|
G|----------------------------------------|-----------------------------------------|
D|----------------------------------------|-----------------------------------------|
A|----------------------------------------|-----------------------------------------|
E|--0-0-0-0---0-0-0-0---0-0-0-0---0-0-0-0-|--0-0-0-0---0-0-0-0---0-0-0-0---0-0-0-0--| x3

e|----------------------------------------|------------------------------|
B|----------------------------------------|------------------------------|
G|----------------------------------------|------------------------------|
D|----------------------------------------|-------2---2-0-2-----0--------|
A|----------------------------------------|-----------------0-2------0---|
E|--0-0-0-0---0-0-0-0---0-0-0-0---0-0-0-0-|--0--0---0-------------3------|

Rest 4 measures while bass plays - begin at 0:35

e|----------------------------------------------------------------------|
B|----------------------------------------------------------------------|
G|----------------------------------------------------------------------|
D|----------------------------------------------------------------------|
A|-------------------------------------------------------------------0--|
E|--0-0--0-3-----0-0--0-3-----0-0--0-3-----0-0--0-3-----0-0----0-0-0----|

e|------------------------------------------------------------------------------|
B|------------------------------------------------------------------------------|
G|----------------------------------------------------------------------2-2-2---|
D|---------------------------------------------------------------3-4--4---------|
A|------------------------------------------------------------------------------|
E|--0-0--0-3-----0-0--0-3-----0-0--0-3-----0-0--0-3-----0-0--0-3----------------|

e|----------------------------------------------------------------------| 
B|----------------------------------------------------------------------|  
G|----------------------------------------------------------------------|   
D|----------------------------------------------------------------------|    
A|-------------------------------------------------------------------0--|     
E|--0-0--0-3-----0-0--0-3-----0-0--0-3-----0-0--0-3-----0-0----0-0-0----|      
                                                                                  
e|----------------------------------------------------------------------|      
B|----------------------------------------------------------------------|     
G|----------------------------------------------------------------------|    
D|-------------------------------------------------------------------0--|   
A|----------------------------------------------------------------------|  
E|--0-0--0-3-----0-0--0-3-----0-0--0-3-----0-0--0-3-----0-0----0-0-0----| 

e|-----------------------------|---------|
B|-----------------------------|---------|
G|-----------------------------|---------|
D|-----------------------------|---------|
A|-----------------------------|---------|
E|--0-0--0-3----0-0---0-0--0---|---------|   x8  (If you are playing til the song loops at 2:40, 
                                                  this measure repeats a few times near the end, 2:13ish)

e|----------------|
B|----------------|
G|----------------|
D|----------------|
A|----------------|
E|--2-2--2-3---3--|

Start back at beginning.


Login or Register to remove this ad.

1 comment on Blitz Off

This wasn't written by Nobuo

This wasn't written by Nobuo Uematsu, you should credit the actual composer Masashi Hamauzu.