Ads

Besaid Island (Final Fantasy X) Guitar Tab

Submitted: Sep 28, 2013 by Colin_spade (Last updated: Sep 28, 2013)

5
Average: 5 (4 votes)
Download | Listen
Game: Final Fantasy X
Composer(s): Nobuo Uematsu, Junya Nakano, Masashi Hamauzu
Style: Arrangement, Fingerstyle
Series: Final Fantasy

AutoScroll: Slow | Medium | Fast
Besaid Island                                   


                                                                   Nobuo Uematsu
Track 1



                          ^                                     
     H.           Q       W                   W                 
E||--------------------|-------------------|-------------------|
B||---------------0----|-------------------|-------------------|
G||---------------2----|--2----------------|-------------------|
D||--0------------2----|--0----------------|--0----------------|
A||--0-----------------|-------------------|--0----------------|
E||--3-----------------|--3----------------|--3----------------|


  ^                                        ^                 
  W                   H.           Q       W                 
-------------------|--------------------|-------------------|
-------------------|---------------0----|-------------------|
--2----------------|---------------2----|--2----------------|
--0----------------|--0------------2----|--0----------------|
-------------------|--0-----------------|-------------------|
--3----------------|--3-----------------|--3----------------|


                      ^                                            
  W                   W                     Q    E  E  E  E  Q     
-------------------|-------------------||--------------------7----|
-------------------|-------------------||-------------------------|
-------------------|--2----------------||*--2----L----------------|
--0----------------|--0----------------||*--0-------0--0--0-------|
--0----------------|-------------------||-------------------------|
--3----------------|--3----------------||---3-------3--3--3-------|


  Q    E  E  E  E  Q       Q    E  E  E  E  Q       Q    E  E  E  E  Q     
--5----------------2----|--0---------------------|------------------------|
------------------------|-------------------3----|------------------------|
------------------------|------------------------|--2---------------------|
--0----L--0--0--0-------|--0----L--0--0--0-------|--0-------0--0--0-------|
------------------------|------------------------|------------------------|
--3----L--3--3--3-------|--3----L--3--3--3-------|--3----L--3--3--3-------|


  Q    E  E  E  E  Q       Q    E  E  E  E  Q       Q    E  E  E  E  Q     
-------------------7----|--5----------------2----|--0---------------------|
------------------------|------------------------|-------------------3----|
--2----L----------------|------------------------|------------------------|
--0-------0--0--0-------|--0----L--0--0--0-------|--0----L--0--0--0-------|
------------------------|------------------------|------------------------|
--3-------3--3--3-------|--3----L--3--3--3-------|--3----L--3--3--3-------|


  Q    E  E  E  E  Q       Q    E  E  E  E  Q       Q    E  E  E  E  Q     
--2---------------------|-------------------7----|--5----------------2----|
------------------------|------------------------|------------------------|
------------------------|--2----L----------------|------------------------|
--0----L--0--0--0-------|--0-------0--0--0-------|--0----L--0--0--0-------|
------------------------|------------------------|------------------------|
--3----L--3--3--3-------|--3-------3--3--3-------|--3----L--3--3--3-------|


  Q    E  E  E  E  Q       Q    E  E  E  E  Q       Q    E  E  E  E  Q     
--0---------------------|------------------------|-------------------7----|
-------------------3----|------------------------|------------------------|
------------------------|--2---------------------|--2----L----------------|
--0----L--0--0--0-------|--0-------0--0--0-------|--0-------0--0--0-------|
------------------------|------------------------|------------------------|
--3----L--3--3--3-------|--3----L--3--3--3-------|--3-------3--3--3-------|


  Q    E  E  E  E  Q       Q    E  E  E  E  Q       Q    E  E  E  E  Q     
--5----------------2----|--0---------------------|--2---------------------|
------------------------|-------------------3----|------------------------|
------------------------|------------------------|------------------------|
--0----L--0--0--0-------|--0----L--0--0--0-------|--0----L--0--0--0-------|
------------------------|------------------------|------------------------|
--3----L--3--3--3-------|--3----L--3--3--3-------|--3----L--3--3--3-------|


                        ^                                ^     
  Q    H        Q       W                   H.           Q     
----------------5----|--2----------------|--0-----------------|
-------3--------3----|--3----------------|---------------3----|
-------4--------2----|-------------------|---------------2----|
-------4-------------|-------------------|--------------------|
---------------------|-------------------|---------------0----|
--3----L-------------|--3----------------|--3-----------------|


  ^                                         ^                 
  W                   Q    H        Q       W                 
-------------------|----------------5----|--2----------------|
-------------------|-------3--------3----|--3----------------|
--2----------------|-------4--------2----|-------------------|
--4----------------|-------4-------------|-------------------|
-------------------|---------------------|-------------------|
--3----------------|--3----L-------------|--3----------------|


               ^       ^                                          
  H.           Q       W                   Q    E  E  E  E  Q     
--0-----------------|-------------------|-------------------7----|
---------------3----|-------------------|------------------------|
---------------2----|--2----------------|--2----L----------------|
--------------------|--4----------------|--0-------0--0--0-------|
---------------0----|-------------------|------------------------|
--3-----------------|--3----------------|--3-------3--3--3-------|


  Q    E  E  E  E  Q       Q    E  E  E  E  Q       Q    E  E  E  E  Q     
--5----------------2----|--0---------------------|------------------------|
------------------------|-------------------3----|------------------------|
------------------------|------------------------|--2---------------------|
--0----L--0--0--0-------|--0----L--0--0--0-------|--0-------0--0--0-------|
------------------------|------------------------|------------------------|
--3----L--3--3--3-------|--3----L--3--3--3-------|--3----L--3--3--3-------|


  Q    E  E  E  E  Q       Q    E  E  E  E  Q       Q    E  E  E  E  Q     
-------------------7----|--5----------------2----|--0---------------------|
------------------------|------------------------|-------------------3----|
--2----L----------------|------------------------|------------------------|
--0-------0--0--0-------|--0----L--0--0--0-------|--0----L--0--0--0-------|
------------------------|------------------------|------------------------|
--3-------3--3--3-------|--3----L--3--3--3-------|--3----L--3--3--3-------|


                                                 ^                 
  Q    E  E  E  E  Q       Q    H        Q       W                 
--2---------------------|----------------5----|--2----------------|
------------------------|-------3--------3----|--3----------------|
------------------------|-------4--------2----|-------------------|
--0----L--0--0--0-------|-------4-------------|-------------------|
------------------------|---------------------|-------------------|
--3----L--3--3--3-------|--3----L-------------|--3----------------|


               ^       ^                                       
  H.           Q       W                   Q    H        Q     
--0-----------------|-------------------|----------------5----|
---------------3----|-------------------|-------3--------3----|
---------------2----|--2----------------|-------4--------2----|
--------------------|--4----------------|-------4-------------|
---------------0----|-------------------|---------------------|
--3-----------------|--3----------------|--3----L-------------|


  ^                                ^       ^                 
  W                   H.           Q       W                 
--2----------------|--0-----------------|-------------------|
--3----------------|---------------3----|-------------------|
-------------------|---------------2----|--2----------------|
-------------------|--------------------|--4----------------|
-------------------|---------------0----|-------------------|
--3----------------|--3-----------------|--3----------------|


  ^                                         ^                  
  H.           Q       H.           Q       H.           Q     
---------------7----|--5------------2----|--0-----------------|
--------------------|--------------------|---------------3----|
--2-----------------|--------------------|--------------------|
--0-----------------|--------------------|--2-----------------|
--2-----------------|--------------------|--0-----------------|
--3-----------------|--3-----------------|--2-----------------|


  ^                   ^                                       
  W                   H.           Q       H.           Q     
-------------------|---------------7----|--5------------2----|
-------------------|--------------------|--------------------|
--2----------------|--2-----------------|--------------------|
--2----------------|--0-----------------|--------------------|
--0----------------|--2-----------------|--------------------|
--2----------------|--3-----------------|--3-----------------|


  ^                    ^                   ^                  
  H.           Q       W                   H.           Q     
--0-----------------|--2----------------|---------------7----|
---------------3----|-------------------|--------------------|
--------------------|-------------------|--2-----------------|
--0-----------------|--4----------------|--0-----------------|
--2-----------------|--4----------------|--2-----------------|
--2-----------------|-------------------|--3-----------------|


                       ^                    ^                 
  H.           Q       H.           Q       W                 
--5------------2----|--0-----------------|-------------------|
--------------------|---------------3----|-------------------|
--------------------|--------------------|--2----------------|
--------------------|--2-----------------|--2----------------|
--------------------|--0-----------------|--0----------------|
--3-----------------|--2-----------------|--2----------------|


  ^                                         ^                  
  H.           Q       H.           Q       H.           Q     
---------------7----|--5------------2----|--0-----------------|
--------------------|--------------------|---------------3----|
--2-----------------|--------------------|--------------------|
--0-----------------|--------------------|--0-----------------|
--2-----------------|--------------------|--0-----------------|
--3-----------------|--3-----------------|--------------------|


  ^                   
  W                   
--2-----------------||
--------------------||
-------------------*||
--0----------------*||
--0-----------------||
--------------------||




Duration Legend
---------------
W - whole
H - half
Q - quarter
E - 8th
S - 16th
T - 32nd
X - 64th
. - note dotted
|-n-|  - n-tuplets


Tablature Legend
----------------
L - tied note
x - dead note
g - grace note
(n) - ghost note
> - accentuded note
NH - natural harmonic
AH - artificial harmonic
TH - tapped harmonic
SH - semi harmonic
PH - pitch harmonic
h - hammer on
p - pull off
b - bend
br - bendRelease
pb - preBend
pbr - preBendRelease
brb - bendReleaseBend
\n/ - tremolo bar dip
\n - tremolo bar dive
-/n - tremolo bar Release up
/n\ - tremolo bar inverted dip
/n - tremolo bar return
-\n - tremolo bar Release down
S - shift slide
s - legato slide
/ -  slide into from below or out of upwards
\ -  slide into from above or out of downwards
~ - vibrato
W - wide vibrato
tr - trill
TP - tremolo picking
T - tapping
S - slap
P - pop
< - fade in
^ - brush up
v - brush down
Login or Register to remove this ad.

7 comments on Besaid Island

"Final Fantasy IX"?!

"Final Fantasy IX"?!

Thanks, fixed

Thanks, fixed

my fault. i was up 2 days

my fault. i was up 2 days straight when i submitted this xD

that's really cool!

that's really cool!

Fantastic!

5

Fantastic!

This wasn't written by Nobuo

This wasn't written by Nobuo Uematsu, you should credit the actual composer Masashi Hamauzu.

thank you for that c: my txt

thank you for that c: my txt file was the only header I had at the time xD ill get this fixed when I re-do the tab c: