Login or Register to remove this ad.

Battle Theme (Final Fantasy X) Bass Tab

Submitted: Feb 01, 2014 by auriplane (Last updated: Feb 02, 2014)

5
Average: 5 (3 votes)
Download | Listen
Game: Final Fantasy X
Composer(s): Nobuo Uematsu, Junya Nakano, Masashi Hamauzu
Style: Transcription
Series: Final Fantasy

This song is also called Normal Battle

AutoScroll: Slow | Medium | Fast
                                    Final Fantasy X - Normal Battle
                                       Composed by Nobuo Uematsu

                                Tabbed by auriplane ([email protected])


Four-string bass, standard tuning.


        Intro (6/8)

   E.    E.    E.    E.     E.    E.    E.    E.     E.    E.    E.    E.     E.    E.    E.    E.   
G |------------------------|------------------------|------------------------|------------------------|
D |------------------------|------------------------|------------------------|------------------------|
A |------------------------|------------------------|9-----9-----9-----------|------------------------|
E |9-----9-----9-----------|5-----5-----5-----------|------------------------|10----10----10----------|


   E   S E   S E   E   E    E   S E   S E   E   E    E   S E   S E   E   E    E   S E   S E   E   E   
G |--------------------9---|--------------------11--|--------------------9---|--------------------11--|
D |------11--------11------|------11--------12------|------11--------11------|------11--------12------|
A |----11---11-12----------|----11---11-12----------|----11---11-12----------|----11---11-12----------|
E |9-----------------------|9-----------------------|9-----------------------|9-----------------------|


        Part A

   E.    E.    E.    E.     E.    E.    E.    E.     E.    E.    E.    E.     E.    E.    E.    E.   
G |------------------------|------------------------|------------------------|------------------------|
D |------------------------|------------------------|------------------------|------------------------|
A |------------------------|------------------------|------------------------|------------------------|
E |9-----9-----9-----------|9-----9-----9-----------|9-----9-----9-----------|10----10----10----------|


        Part B (4/4)

   E.    E.    E.    E.    S S S S  E.    E.    E.    E.    S S S S  E.    E.    E.    E.    S S S S  E.    E.    E.    E.    E   S S
G |--------------------------------|--------------------------------|--------------------------------|--------------------------------|
D |--------------------------------|--------------------------------|--------------------------------|--------------------------------|
A |--------------------------6-7-7-|--------------------------6-7-7-|----------------------------6-6-|7-----7-----7-----7-----7---6-6-|
E |9-----9-----9-----9-----9-------|9-----9-----9-----9-----9-------|7-----7-----7-----7-----7-9-----|--------------------------------|


   E.    E.    E.    E.    S S S S  E.    E.    E.    E.    E   S S  E.    E.    E.    E.    S S S S  E.    E.    E   E.    E.    S S
G |--------------------------------|--------------------------------|--------------------------------|--------------------------------|
D |--------------------------------|4-----4-----4-----4-----4-------|--------------------------3-5---|--------------------------------|
A |----------------------------4-4-|----------------------------7-7-|6-----6-----6-----6-----6-----4-|3-----3-----3-------------------|
E |5-----5-----5-----5-----5-7-----|--------------------------------|--------------------------------|----------------4-----4-----4-4-|


        Part C

   E.    E   S E.    E   S E   E    E.    E.    E.    E.    E   E    E.    E   S E.    E   S E   E    E.    E.    E   E   E   E   E   
G |------------6-----------6---4---|--------------------------------|--------------------------------|------9-----8---6---------------|
D |----------6-------4---6---------|7-------------------------------|------------9-----------9---7---|--------------------9---7---6---|
A |4-----7-------------------------|------------------4-----6---7---|------6---9-------7---9---------|7-------------------------------|
E |--------------------------------|------5-----7-------------------|7-------------------------------|--------------------------------|


   E.    E   S E.    E   S E   E    E.    E.    E.    E.    E   E    E.    E.    E.    E.    E   E    E.    E.    E.    E.    E   E   
G |--------------------------------|--------------------------------|--------------------------------|------------5-----6-----8-------|
D |7-----------7-----------7---6---|5-------------------------------|------4-----5-----6-----8---5---|6-----8---------------------6---|
A |------4---7-------4---7---------|------4-----6---------------4---|7-------------------------------|--------------------------------|
E |--------------------------------|------------------6-----3-------|--------------------------------|--------------------------------|


        Part D

   H.                      E   E    E.    E.    E.    E.    E   E    E.    E.    E.    E.    E   E    H.                      E   E
G |------------------------6---4---|------------6---------------6---|------------6---------------6---|--------------------------------|
D |--------------------------------|7-----------------------7-------|7-----------------------7-------|------------------------9---7---|
A |4-------------------------------|------7-----------8-------------|------9-----------8-------------|--------------------------------|
E |--------------------------------|--------------------------------|--------------------------------|7-------------------------------|

   E.    E.    E.    E.    E   E    E.    E.    E.    E.    E   E    E.    E   S E.    E   S E   E    E.    E   S E.    E   S E   E
G |----------------------------6---|8-----------------6-------------|--------------------------------|----------------------------8---|
D |6-----------9-----------6-------|------------6---------------6---|7-----------7-----------7-------|9-----------9-----------9-------|
A |------7-----------7-------------|------7-----------------7-------|------6---7-----------7-----9---|------7---9-------6---9---------|
E |--------------------------------|--------------------------------|------------------9-------------|--------------------------------|


        Part E

   H.                      Q        H.                      Q        H.                      Q        W
G |6-------------------------------|--------------------------------|--------------------------------|--------------------------------|
D |------------------------9-------|7-----------------------6-------|--------------------------------|--------------------------------|
A |--------------------------------|--------------------------------|9-----------------------7-------|--------------------------------|
E |--------------------------------|--------------------------------|--------------------------------|10------------------------------|

        Repeat back to Part A.


Login or Register to remove this ad.

1 comment on Battle Theme

Fantastic!

Fantastic!