style="display:inline-block;width:728px;height:90px"
data-ad-client="ca-pub-7696863992758820"
data-ad-slot="5242914555">

Wind Crest - The Three Trails (Final Fantasy X-2) Guitar Tab

Submitted: Jun 24, 2009 by Kabukibear (Last updated: Nov 27, 2009)

4.636365
Average: 4.6 (22 votes)
Download | Listen
Game: Final Fantasy X-2
Composer(s): Noriko Matsueda, Takahito Eguchi
Style: Arrangement, Fingerstyle
Series: Final Fantasy

AutoScroll: Slow | Medium | Fast
Wind Crest - The Three Trails                           
~Final Fantasy X-2~
Composed by: Noriko Matsueda, Takahito Eguchi, Kazuhiro Hara
Arranged by: Justin Lincoln

Drop D Tuning


     S S S S S S S S S S S S    S S S S S S S S S S S S  
E||--3-----------------------|--3-----------------------|
B||------0---1---3---0---1---|------0---1---3---0---1---|
G||----0---0---0---0---0---0-|----0---0---0---0---0---0-|
D||--------------------------|--------------------------|
A||--0-----------------------|----------------------2---|
D||--------------------------|--3-----------------------|


  S S S S S S S S S S S S    S S S S S S S S S S S S  
--3-----------------------|--3---------------0---8---|
------0---1---3---0---1---|------0---1---3-----------|
----0---0---0---0---0---0-|----0---0---0---0---0---0-|
--------------------------|--------------------------|
--0-----------------------|--------------------------|
--------------------------|--3-------------------5---|


  S S S S S S S S S S S S    S S S S S S S S S S S S  
--7-----------3-----------|--0---------------0---8---|
------0---1---3---0---1---|--1---0---1---3-----------|
----0---0---0---0---0---0-|----0---0---0---0---0---0-|
--------------------------|--------------------------|
--0-----------------------|--------------------------|
--------------2-----------|--3-------------------9---|

                             Fine
                             ^                 1st Ending  ------------       
  S S S S S S S S S S S S    E.  E.  Q.        S S S S S S S S S S S S  
--7-----------3-------0---|--0--------------|--0-----------0-------1---|
------0---1---3---0-------|--1--------------|--------0-1---------------|
----0---0---0---0---0---0-|--0---0----------|------2-------------0---0-|
--------------------------|--3--------------|----2-------2-----3-------|
--0-----------------------|--3-------3------|--0-------------3---------|
--------------2-----------|--3--------------|--------------3-----------|


  S S S S S S S S S S S S    S S S S S S S S S S S S  
--3-----------------------|--0-----------------------|
----------0---3-------1---|--------0-1---------------|
------0-2---0-----0-------|------2-----------0-2-----|
----0-----------0---0---0-|----2-------2-3-------3---|
----------------------2---|--0-------------3-------3-|
--5-----------5-----------|--------------3-----------|


  S S S S S S S S S S S S    S S S S S S S S S S S S  
--------------------------|--0-----------0-------1---|
------0-------3-------1---|--------0-1---------------|
----------5-----0---0---0-|------2-------------0---0-|
----0---0---0-----0-------|----2-------2-----3-------|
----------------------2---|--0-------------3---------|
--5-----------5-----------|--------------3-----------|


                                                                    ^        
  S S S S S S S S S S S S    S S S S S S S S S S S S    S S S S S S Q    E   
--3-------1-0-------------|------0-------------------|----------------------|
--------0-----3-------1---|----------3---3---------0-|----------3-----------|
------0---0-------0-------|--2---------------0---5---|--2-----2---2-2----2--|
----0-------0---2---2---0-|----3---3-------0---0-----|--5---5-------4-------|
----------------------2---|--------------------------|----0---------0-------|
--5-----------2-----------|--3---------3-5-----------|--0-----------0-------|


  S S S S S S S S S S S S    S S S S S S S S S S S S  
--0-----------0-------1---|--3-----------------------|
--------0-1---------------|----------0---3-------1---|
------2-------------0---0-|------0-2---0-----0-------|
----2-------2-----3-------|----0-----------0---0---0-|
--0-------------3---------|----------------------2---|
--------------3-----------|--5-----------5-----------|


  S S S S S S S S S S S S    S S S S S S S S S S S S  
--0-----------------------|--------------------------|
--------0-1---------------|------0-------3-------1---|
------2-----------0-2-----|----------5-----0---0---0-|
----2-------2-3-------3---|----0---0---0-----0-------|
--0-------------3-------3-|----------------------2---|
--------------3-----------|--5-----------5-----------|


  S S S S S S S S S S S S    S S S S S S S S S S S S  
--0-----------0-------1---|--3-------1-0-------------|
--------0-1---------------|--------0-----3-------1---|
------2-------------0---0-|------0---0-------0-------|
----2-------2-----3-------|----0-------0---2---2---0-|
--0-------------3---------|----------------------2---|
--------------3-----------|--5-----------2-----------|


                                         ^            2nd Ending -------------                         
  S S S S S S S S S S S S    S S S S S S Q    E       S S S S S S S S S S S S  
------0-------------------|-------------------3---||--0-----------0-------1---|
----------3---3---------0-|----------3---3--------||--------0-1---------------|
--2---------------0---5---|--2-----2---2-2-------*||------2-------------0---0-|
----3---3-------0---0-----|--5---5-------4-------*||----2-------2-----3-------|
--------------------------|----0------------------||--0-------------3---------|
--3---------3-5-----------|--0-----------0--------||--------------3-----------|


  S S S S S S S S S S S S    S S S S S S S S S S S S  
--3-----------------------|--0-----------------------|
----------0---3-------1---|--------0-1---------------|
------0-2---0-----0-------|------2-----------0-2-----|
----0-----------0---0---0-|----2-------2-3-------3---|
----------------------2---|--0-------------3-------3-|
--5-----------5-----------|--------------3-----------|


  S S S S S S S S S S S S    S S S S S S S S S S S S  
--------------------------|--0-----------0-------1---|
------0-------3-------1---|--------0-1---------------|
----------5-----0---0---0-|------2-------------0---0-|
----0---0---0-----0-------|----2-------2-----3-------|
----------------------2---|--0-------------3---------|
--5-----------5-----------|--------------3-----------|


                                                                    ^          
  S S S S S S S S S S S S    S S S S S S S S S S S S    S S S S S S E.  S S S  
--3-------1-0-------------|------0-------------------|------------------------|
--------0-----3-------1---|----------3---3---------0-|----------3-----------0-|
------0---0-------0-------|--2---------------0---5---|--2-----2---2-2---2-2---|
----0-------0---2---2---0-|----3---3-------0---0-----|--5---5-------4---------|
----------------------2---|--------------------------|----0---------0---------|
--5-----------2-----------|--3---------3-5-----------|--0-----------0---------|


             ^                      ^                         ^           
  E  S S S S E  E  E     E  S S S S S. S. S. S.    E  S S S S E  S S S S  
----------------3-----|-------------0--1-----0--|------------------------|
--1------1---1--------|-------1-1-3-0-----3-----|--1------1---0----0-0-1-|
--2----2-----0-----0--|--2----------0-----0-----|--2----2-----0--0-------|
--3--------3-------0--|--3----------------------|--3--3-----3-0----------|
-----0----------------|--3--3-------------------|--0----------2----------|
--0----------2-----2--|--3----------5-----5-----|------------------------|


                                   ^                      ^            
  E  S E  E  S S S S    E  S S S S E  E  E     E  S S S S S. S. S. S.  
-------------0-------|----------------3-----|-------------0--1--3--0--|
--3----------------0-|--1------1---1--------|-------1-1-3-0-----0-----|
--0--0-0--2------2---|--2----2-----0-----0--|--2----------0-----0-----|
--0-------4----4-----|--3--------3-------0--|--3----------------------|
----------0----------|-----0-------------2--|--3--3-------------------|
--2-------0----------|--0----------2-----2--|--3----------5-----5-----|

                                                                 Ritardo ---
  E  S S E  S S S S S S    E  S S S S S S S S S S    S S S S S S S S S S S S  
-----0------------------|-----------0-------------|--3-----------3-----------|
--3----1----------0-0-1-|--3------------------3---|----------3-----------3---|
--2-------------0-------|--0------0---5---5-------|------5-----------5-------|
--3-----------0---------|--2----2-------5---5---5-|----5---5---5---5---5---5-|
--0------0--2-------2---|--3--3-------------------|--------------------------|
------------------------|-------------3-----------|--------------3-----------|

    D.C. al Fine
  S S S S S S   
--3-----------||
----------3---||
------5-------||
----5---5---5-||
--------------||
--3-----------||




Duration Legend
---------------
W - whole
H - half
Q - quarter
E - 8th
S - 16th
T - 32nd
X - 64th
. - note dotted
|-n-|  - n-tuplets


Tablature Legend
----------------
L - tied note
^ - brush up
D.C. al Fine - go back to beginning and play to the end of the measure marked Fine
Ritardo - gradually slow down
Login or Register to remove this ad.

12 comments on Wind Crest - The Three Trails

Verdict

5

This is some good stuff, after listening to it twice and comparing it with the piano version(couldn't find original).. I find nothing that deems this having less than 5 stars

I love it.

5

I love it. Looks like I'm going to be learning this version of the song now too =]

I'm speechless.. All I can

I'm speechless.. All I can say is THANK YOU! ^^

Wow. This might reach the

5

Wow. This might reach the popularity of Radical Dreamers.

I never played X-2, but I

5

I never played X-2, but I loved your Eternity arrangement(s) and this looks incredible.

Left my guitar at my parents' house last weekend; now I'm really kicking myself.

Thanks

12.75

Thank you, Justin. I knew you could do it haha.

I was learning this song on the piano instead, but now I have both!

5 stars, undoubtedly :D

beautiful arrangement

5

beautiful arrangement

What?!

5

I was browsing around your tabs; I had no idea you tabbed this!

This is that guy that commented on your Birth of a God tab, requesting you to arrange this peice. Oh man, you've just made my year with this thing. I'm going to be up weeks learning this :P

Thanks, Kabooks!

Seriously, though.

You have no idea how happy this makes me. This is masterful. May a thousand maidens drop their panties for you, good sir.

lololol glad you enjoyed it

lololol glad you enjoyed it man. Have fun!

♪♫♪

5

lovely melody...!

<3

5

<3

style="display:inline-block;width:300px;height:250px"
data-ad-client="ca-pub-7696863992758820"
data-ad-slot="4229215784">