Ads

Seal of The Wind: The Three Trials (blitzwater version) (Final Fantasy X-2) Guitar Tab

Submitted: Jun 15, 2009 by ChelseaRare (Last updated: Jun 16, 2009)

5
Average: 5 (8 votes)
Download | Listen
Game: Final Fantasy X-2
Composer(s): Noriko Matsueda, Takahito Eguchi
Style: Arrangement
Series: Final Fantasy

Click here for a video example.

AutoScroll: Slow | Medium | Fast
Seal of The Wind: The Three Trials

Composed by: Nobuo Uematsu
Arranged by: Blitzwater
Tabbed by: ChelseaRare

     E  E  E  E  E  E     E  E  E  E  E  E     E  E  E  E  E  E   
E||--3-----------------|--------------------|--3-----------------|
B||--------0-----1-----|--3-----0-----1-----|--------0-----1-----|
G||-----0-----0-----0--|-----0-----0-----0--|-----0-----0-----0--|
D||--------------------|--------------------|--------------------|
A||--------------------|--------------------|--3-----------------|
E||--0-----------------|--0-----------------|--------------------|


  E  E  E  E  E  E     E  E  E  E  E  E     E  E  E  E  E  E   
--------------------|--3-----------------|--------------------|
--3-----0-----1-----|--------0-----1-----|--3-----0-----1-----|
-----0-----0-----0--|-----0-----0-----0--|-----0-----0-----0--|
--------------------|--------------------|--------------------|
--3-----------------|--------------------|--------------------|
--------------------|--0-----------------|--0-----------------|


  E  E  E  E  E  E     E  E  E  E  E  E     E  E  E  E  E  E   
--3-----------------|--------------------|--0--------------0--|
--------0-----1-----|--3-----0-----1-----|--------1-----------|
-----0-----0-----0--|-----0-----0-----0--|-----2--------2-----|
--------------------|--------------------|-----------2--------|
--3-----------------|--3-----------------|--0-----------------|
--------------------|--------------------|--------------------|


  E  E  E  E  E  E     E  E  E  E  E  E     E  E  E  E  E  E   
--0--------------1--|--3-----------------|--------------------|
--1-----1-----------|--------0-----------|--3-----------------|
-----2--------2-----|-----0--------0-----|--------0-----------|
--3--------3--------|-----------0-----0--|-----0-----0-----0--|
--------------------|--------------------|--------------2-----|
--------------------|--3-----------------|--3-----------------|


  E  E  E  E  E  E     E  E  E  E  E  E     E  E  E  E  E  E   
--0--------------0--|--0--------------1--|--------------------|
--------1-----------|--1-----1-----------|--3-----------------|
-----2--------2-----|-----2--------2-----|--------0-----2-----|
-----------2--------|--3--------3--------|-----0-----0-----0--|
--0-----------------|--------------------|--------------------|
--------------------|--------------------|--3-----------------|


  E  E  E  E  E  E     H.               Q     Q     Q       E  E  E  E  E  E   
--------------------|---------------|--15----------------|--0--------------0--|
--0-----------------|--0------------|--------15----------|--------1-----------|
--------0-----2-----|---------------|--------------12----|-----2--------2-----|
-----0-----0-----0--|---------------|--------------------|-----------2--------|
--------------------|---------------|--------------------|--0-----------------|
--3-----------------|--3------------|--------------------|--------------------|


  E  E  E  E  E  E     E  E  E  E  E  E     E  E  E  E  E  E   
--0--------------1--|--3-----------------|--------------------|
--1-----1-----------|--------0-----------|--3-----------------|
-----2--------2-----|-----0--------0-----|--------0-----------|
--3--------3--------|-----------0-----0--|-----0-----0-----0--|
--------------------|--------------------|--------------2-----|
--------------------|--3-----------------|--3-----------------|


  E  E  E  E  E  E     E  E  E  E  E  E     E  E  E  E  E  E   
--------------------|--------------------|--------------------|
--1-----------1-----|--0-----------0-----|--3-----------3-----|
--2-----2-----------|--------1-----------|--------2-----------|
-----3-----------3--|-----2-----------2--|-----2-----------2--|
-----------3--------|-----------2--------|--0--------0--------|
--1-----------------|--0-----------------|--------------------|


  H        E  E     E  E  E  E  E  E     E  E  E  E  E  E   
-----------------|--------------------|--------------------|
--2-----------0--|--1-----------0--1--|--3-----------1--3--|
--2--------2-----|--------2-----------|--------0-----------|
-----------------|-----3-----3--------|-----0-----0--------|
--0--------------|--------------------|--------------------|
-----------------|--1-----------------|--3-----------------|


  E  E  E  E  E  E     E  E  E  E  E  E     E  E  E  E  E  E   
--0-----------------|--------------0--1--|--3-----------------|
--------1-----3--1--|--3-----------------|--------0-----1-----|
-----2-----2--------|--------0-----------|-----0-----0-----0--|
--------------------|-----0-----0--------|--------------------|
--0-----------------|--------------------|--------------------|
--------------------|--3-----------------|--0-----------------|


  E  E  E  E  E  E     E  E  E  E  E  E     E  E  E  E  E  E   
--------------------|--3-----------------|--------------------|
--3-----0-----1-----|--------0-----1-----|--3-----0-----1-----|
-----0-----0-----0--|-----0-----0-----0--|-----0-----0-----0--|
--------------------|--------------------|--------------------|
--------------------|--3-----------------|--3-----------------|
--0-----------------|--------------------|--------------------|


  E  E  E  E  E  E     E  E  E  E  E  E     E  E  E  E  E  E   
--3-----------------|--------------------|--3-----------------|
--------0-----1-----|--3-----0-----1-----|--------0-----1-----|
-----0-----0-----0--|-----0-----0-----0--|-----0-----0-----0--|
--------------------|--------------------|--------------------|
--------------------|--------------------|--3-----------------|
--0-----------------|--0-----------------|--------------------|


  E  E  E  E  E  E    
--------------------||
--3-----0-----1-----||
-----0-----0-----0--||
--------------------||
--3-----------------||
--------------------||      

~Ending Part~
      
      E  E  E  E  E  E     E  E  E  E  E  E     E  E  E  E  E  E   
E||---------------------|--------------------|--------------------|
B||---------------------|--1-----------------|--------------------|
G||*--------------2-----|--------2-----------|--------------0-----|
D||*--------3-----------|--------------3-----|--------0-----------|
A||------3-----------3--|-----------3--------|-----2-----------2--|
E||---1--------1--------|-----1-----------1--|--3--------3--------|


  E  E  E  E  E  E       E  E  E  E  E  E     E  E  E  E  E  E   
---------------------||--------------------|--------------------|
--0------------------||--------------1-----|--1-----------------|
--------0-----------*||--------------------|--------2-----------|
--------------0-----*||--------3-----------|--------------3-----|
-----------2---------||-----3-----------3--|-----------3--------|
-----3-----------3---||--1--------1--------|-----1-----------1--|


  E  E  E  E  E  E     E  E  E  E  E  E     E  E  E  E  E  E   
--------------------|--------------------|--------------------|
--------------------|--0-----------------|--------------1-----|
--------------0-----|--------0-----------|--------2-----------|
--------2-----------|--------------2-----|-----3--------------|
-----2-----------2--|-----------2--------|--3--------3-----3--|
--0--------0--------|-----0-----------0--|--------------------|


  E  E  E  E  E  E     E  E  E  E  E  E     E  E  E  E  E  E   
--------------------|--------------------|--------------------|
--1-----------------|--------------3-----|--3-----------------|
--------2-----------|--------4-----------|--------4-----------|
--------------3-----|-----5--------------|--------------5-----|
-----3-----3-----3--|--5--------5-----5--|-----5-----5-----5--|
--------------------|--------------------|--------------------|


  E  E  E  E  E  E     E  E  E  E  E  E     E  E  E  E  E  E   
--------------1-----|--1-----------------|--------------1-----|
--------3-----------|--------3-----------|--------1-----------|
-----2--------------|--------------2-----|-----2--------------|
--0--------0-----0--|-----0-----0-----0--|--3--------3-----3--|
--------------------|--------------------|--------------------|
--------------------|--------------------|--------------------|


                                                                 ^             
  E  E  E  E  E  E     E  E  E  E  E  E     E  E  E  E  E  E     H.            
--1-----------------|--------------------|--------------------|--0------------|
--------1-----------|--------------0-----|--1-----------------|--1------------|
--------------2-----|--------2-----------|--------2-----------|--2------------|
-----3-----3-----3--|-----2--------------|--------------2-----|--2------------|
--------------------|--------------------|--------------------|--0------------|
--------------------|--0--------0-----0--|-----0-----0-----0--|---------------|


  E  E  E  E  E  E     E  E  E  E  E  E     E  E  E  E  E  E   
--3-----------------|--------------------|--3-----------------|
--------0-----1-----|--3-----0-----1-----|--------0-----1-----|
-----0-----0-----0--|-----0-----0-----0--|-----0-----0-----0--|
--------------------|--------------------|--------------------|
--------------------|--------------------|--3-----------------|
--0-----------------|--0-----------------|--------------------|


  E  E  E  E  E  E     E  E  E  E  E  E     E  E  E  E  E  E   
--------------------|--3-----------------|--------------------|
--3-----0-----1-----|--------0-----1-----|--3-----0-----1-----|
-----0-----0-----0--|-----0-----0-----0--|-----0-----0-----0--|
--------------------|--------------------|--------------------|
--3-----------------|--------------------|--------------------|
--------------------|--0-----------------|--0-----------------|


                                            ^              
  E  E  E  E  E  E     E  E  E  E  E  E     H.             
--3-----------------|--------------------|--3------------||
--------0-----1-----|--3-----0-----1-----|--0------------||
-----0-----0-----0--|-----0-----0-----0--|--0------------||
--------------------|--------------------|--2------------||
--3-----------------|--3-----------------|--3------------||
--------------------|--------------------|---------------||    

      
Login or Register to remove this ad.

6 comments on Seal of The Wind: The Three Trials (blitzwater version)

THANK YOU SO MUCH!!!

5

Thanks so much for this wonderful tab ChelseaRare

Great stuff. =)

5

Great stuff. =)

updated this

ZIP file *UPDATED*

Measure 18

Measure 18 can be played an octave lower if you don't feel like sliding all the way down to the 15 fret. Makes it a bit easier.

It would be like this

|--3----------------|
|--------3----------|
|--------------0----|
|-------------------|
|-------------------|
|-------------------|

Joy!

5

And both versions on the site, this is a dream come true!

:D

5

me like this one. :D