Ads

Unrest (Final Fantasy VIII) Guitar Tab

Submitted: Jan 24, 2015 by Exdeath

5
Average: 5 (3 votes)
Download | Listen
Game: Final Fantasy VIII
Composer(s): Nobuo Uematsu
Style: Arrangement, Fingerstyle
Series: Final Fantasy

AutoScroll: Slow | Medium | Fast
  Unrest                                      


                         W                   W                 
E||-------------------|--4----------------|--9----------------|
B||-------------------|--4----------------|--9----------------|
G||-------------------|--4----------------|--9----------------|
D||-------------------|--3----------------|--8----------------|
A||-------------------|-------------------|-------------------|
E||-------------------|--4----------------|--9----------------|


  Q     H        E  E     H.           Q       W                 
--0-----7--------------|--L------------L----|--4----------------|
--0-----7--------------|--L------------L----|--4----------------|
--2-----9--------------|--------------------|--4----------------|
--3----10-----------L--|--9------------7----|--6----------------|
--------------------7--|--------------------|-------------------|
--0-----7--------8-----|--------------------|-------------------|


   W                   Q    H        Q       W                 
---9----------------|--0----7-------------|--L----------------|
---9----------------|--1----6--------7----|--L----------------|
---9----------------|--2----8-------------|--L----------------|
--11----------------|--2----9-------------|--L----------------|
--------------------|---------------------|-------------------|
--------------------|---------------------|-------------------|


  H        E  E  E  E     H        H           W                 
--5--------3--L--------|--------------------|-------------------|
--3--------------6--L--|--5-----------------|-------------------|
--3--------------------|-----------4--------|--L----------------|
--5--------------7--5--|--6-----------------|-------------------|
--------------5--------|--7--------L--------|-------------------|
--3--------L-----------|--------------------|--0----------------|


  H        E  E  E  E     H        H           Q.     S  S  H         
--3--------1--L--------|--------------------|------------------------|
--1--------------4--L--|--3-----------------|---------3h-4p-3--------|
--1--------------------|-----------2--------|--L---------------------|
--3--------------------|--4-----------------|------------------------|
--------------------3--|--5-----------------|------------------------|
--1--------L--3--4-----|--------------------|------------------------|


  W                   Q    Q     Q    Q       H        H         
-------------------|-----------------------|--------------------|
--3----------------|--3---------------L----|--3-----------------|
--4----------------|--L----4----------L----|-----------4--------|
--5----------------|--L----L-----5----L----|--------------------|
--5----------------|--L----------L----5----|--------------------|
-------------------|-----------------------|--3-----------------|


  H        H           H        H           W                 
--0--------L--------|--2-----------------|--L----------------|
--------------------|--L--------2--------|--L----------------|
--L--------2--------|--------------------|--L----------------|
--------------------|--------------------|-------------------|
--------------------|--------------------|-------------------|
-----------L--------|--------------------|--L----------------|


  W                   W                   Q     H        E  E   
--4----------------|--9----------------|--0-----7--------------|
--4----------------|--9----------------|--0-----7--------------|
--4----------------|--9----------------|--2-----9--------------|
--3----------------|--8----------------|--3----10-----------L--|
-------------------|-------------------|--------------------7--|
--4----------------|--9----------------|--0-----7--------8-----|


  H.           Q       W                    W                 
--L------------L----|--4----------------|---9----------------|
--L------------L----|--4----------------|---9----------------|
--------------------|--4----------------|---9----------------|
--9------------7----|--6----------------|--11----------------|
--------------------|-------------------|--------------------|
--------------------|-------------------|--------------------|


  Q    H        Q       W                   H        E  E  E  E   
--0----7-------------|--L----------------|--5--------3--L--------|
--1----6--------7----|--L----------------|--3--------------6--L--|
--2----8-------------|--L----------------|--3--------------------|
--2----9-------------|--L----------------|--5--------------7--5--|
---------------------|-------------------|--------------5--------|
---------------------|-------------------|--3--------L-----------|


  H        H           W                   H        E  E  E  E   
--------------------|-------------------|--3--------1--L--------|
--5-----------------|-------------------|--1--------------4--L--|
-----------4--------|--L----------------|--1--------------------|
--6-----------------|-------------------|--3--------------------|
--7--------L--------|-------------------|--------------------3--|
--------------------|--0----------------|--1--------L--3--4-----|


  H        H           Q.     S  S  H           W                 
--------------------|------------------------|-------------------|
--3-----------------|---------3h-4p-3--------|--3----------------|
-----------2--------|--L---------------------|--4----------------|
--4-----------------|------------------------|--5----------------|
--5-----------------|------------------------|--5----------------|
--------------------|------------------------|-------------------|


  Q    Q     Q    Q       H        H           H        H         
-----------------------|--------------------|--0--------L--------|
--3---------------L----|--3-----------------|--------------------|
--L----4----------L----|-----------4--------|--L--------2--------|
--L----L-----5----L----|--------------------|--------------------|
--L----------L----5----|--------------------|--------------------|
-----------------------|--3-----------------|-----------L--------|


  H        H           W                                      
--2-----------------|--L----------------|-------------------||
--L--------2--------|--L----------------|-------------------||
--------------------|--L----------------|-------------------||
--------------------|-------------------|-------------------||
--------------------|-------------------|-------------------||
--------------------|--L----------------|-------------------||
Login or Register to remove this ad.