Ads

Under Her Control (Final Fantasy VIII) Bass Tab

Submitted: Aug 10, 2011 by auriplane

5
Average: 5 (1 vote)
Download | Listen
Game: Final Fantasy VIII
Composer(s): Nobuo Uematsu
Style: Transcription
Series: Final Fantasy

AutoScroll: Slow | Medium | Fast
             Final Fantasy 8 - Under Her Control BASS TAB
                      Composed by Nobuo Uematsu

                Tabbed by auriplane ([email protected])



Four-string bass, standard tuning.  Rest for four measures at the
beginning.

        Part A

G |----------------------------7---|8-------------------------------|
D |--------------------------------|----------------------------10--|
A |8-------------------------------|--------------------------------|
E |--------------------------------|--------------------------------|

 
G |------12--10--------8---7-------|----------------------------7---|
D |--------------------------------|10--8-------5-------6---8-------|
A |8-------------------------------|--------------------------------|
E |--------------------------------|--------------------------------|


G |----------------------------7---|8-------------------------------|
D |--------------------------------|----------------------------10--|
A |8-------------------------------|--------------------------------|
E |--------------------------------|--------------------------------|


G |------------7-------8-------12--|10--10--------------------------|
D |--------------------------------|--------10--10------------------|
A |8-------------------------------|--------------------------------|
E |--------------------------------|--------------------------------|

        Part B

G |------------------------7---8---|9-------------------------------|
D |--------------------8-----------|------------------10--------8---|
A |6-------------------------------|----------------------10--------|
E |--------------------------------|--------------------------------|


G |------------7-------8-----------|--------------------------------|
D |--------------------------------|10----------6-------------------|
A |8-------------------------------|------------------------8---7---|
E |--------------------------------|--------------------------------|


G |------------------------7---8---|9-------------------------------|
D |--------------------8-----------|------------------10--------8---|
A |6-------------------------------|----------------------10--------|
E |--------------------------------|--------------------------------|


G |------------7-------8-----------|--------------------------------|
D |--------------------------------|10----------6-------------------|
A |8-------------------------------|--------------------6-------7---|
E |--------------------------------|--------------------------------|

        Repeat parts A and B before continuing.
        Part C

G |------------8---10--------------|--------------------------------|
D |--------------------------------|--------------------------------|
A |8---------------------------8-9-|10------10------6-----------7---|
E |--------------------------------|--------------------------------|


G |------------8---10--------------|--------------------------------|
D |--------------------------------|------------8-9-10--------------|
A |8---------------------------8-9-|10------------------------------|
E |--------------------------------|--------------------------------|


Login or Register to remove this ad.

1 comment on Under Her Control

yeyeyeye

5

spot on as always auri!