Ads

Truth (Final Fantasy VIII) Guitar Tab

Submitted: Sep 30, 2010 by Daugreano

5
Average: 5 (3 votes)
Download | Listen
Game: Final Fantasy VIII
Composer(s): Nobuo Uematsu
Style: Arrangement, Fingerstyle
Series: Final Fantasy

AutoScroll: Slow | Medium | Fast
Song:Truth
Game: Final Fantasy VIII
Composer: Nobuo Uematsu
Tabbed by: Daugreano

Repeat the indicated section 1x, then play the last four measures.

Guitar: 

   Q    Q    H       Q    Q    H       Q    Q    Q    Q      W        Q    Q    H  
E|-----------------|-----------------|---------------------|--------|-----------------|
B|------1----1-----|------1----1-----|------1----1----1----|-1------|------1----1-----|
G|------2----2-----|------2----2-----|------2----2----2----|-2------|------2----2-----|
D|------2----3-----|------0----2-----|------2----3----0----|-2------|------2----3-----|
A|-0---------------|-----------------|-0-------------------|--------|-0---------------|
E|-----------------|-----------------|---------------------|--------|-----------------|

   Q    Q    H       Q    Q    Q    Q      W        Q.    E   Q    E   E     Q.    E   Q    E   E
E|-----------------|---------------------|--------|-------0---1----0-------|-------7---10---9---7---|
B|------1----1-----|---------------------|--------|-3------------------3---|-7----------------------|
G|------2----2-----|------2----2----2----|-2------|------------------------|------------------------|
D|------0----2-----|------2----3----0----|-2------|-3----------------------|------------------------|
A|-----------------|-0----3----3----3----|-3------|-5----------------------|------------------------|
E|-----------------|---------------------|--------|------------------------|-7----------------------|

   Q.    E   Q    E   E     Q    H.       W        Q.    E   Q    E   E     Q    H. 
E|-14----9--------7---9---|-10----------|--------|------------------------|-------------|
B|-----------10-----------|------8------|--------|-0----------------------|-7----3------|
G|------------------------|-0-----------|--------|------------------------|-------------|
D|------------------------|-------------|--------|-0---------2----0-------|-4----4------|
A|------------------------|-------------|--------|-2-----3------------3---|-5----2------|
E|-14---------------------|-------------|-3------|-3----------------------|-------------|

   Q.    E   Q    E   E     Q    H.       H.     Q      Q.    E   Q    E   E     Q.    E   Q    E   E
E|------------------------|-------------|-------------|-------0---1----0-------|-------7---10---9---7---|
B|------------------------|-7----3------|-------------|-3------------------3---|-7----------------------|
G|-3---------0------------|-7-----------|-------------|------------------------|------------------------|
D|-0-----0--------3---2---|------0------|-------------|-3----------------------|------------------------|
A|-1----------------------|-9-----------|--------0----|-5----------------------|------------------------|
E|------------------------|-------------|-------------|------------------------|-7----------------------|

   Q.    E   Q    E   E     Q    H.       W        Q.    E   Q    E   E     Q    H.
E|-14----9--------7---9---|-10----------|--------|-----------0------------|-------------|
B|-----------10-----------|------8------|--------|-------1--------3---1---|-3----0------|
G|------------------------|-0-----------|--------|-0----------------------|-------------|
D|------------------------|-------------|--------|------------------------|-------------|
A|------------------------|-------------|--------|-3----------------------|-2-----------|
E|-14---------------------|-------------|-3------|------------------------|-------------|

   Q.    E   Q    E   E     Q    Q    Q    Q      Q.    E   E   E   E   E     Q    H.
E|-----------3----1---0---|-1---------1----5----|-8-----7---5---0-----------|-3----1------|
B|-------3----------------|------3--------------|-------------------1-------|-------------|
G|-3----------------------|---------------------|-----------------------2---|-------------|
D|-5----------------------|-0-------------------|---------------------------|-------------|
A|------------------------|---------------------|-0-------------------------|-------------|
E|------------------------|---------------------|---------------------------|-1-----------|

   Q.    E   E   E   E   E     Q    Q    Q    Q      W        W        W        Q    Q    H  
E|-0-------------------------|----------------1----|-8------|--------|--------|-----------------|
B|-------3---1---------------|-1---------2---------|--------|--------|--------|------1----1-----|
G|---------------2-----------|------3--------------|--------|--------|--------|------2----2-----|
D|-------------------2---3---|---------------------|--------|-3------|-3------|------2----3-----|
A|-0-------------------------|-1-------------------|--------|--------|--------|-0---------------|
E|---------------------------|---------------------|-6------|-1------|--------|-----------------|

   Q    Q    H       Q    Q    Q    Q      W
E|-----------------|---------------------|--------|
B|------1----1-----|------1----1----1----|-1------|
G|------2----2-----|------2----2----2----|-2------|
D|------0----2-----|------2----3----0----|-2------|
A|-----------------|-0-------------------|--------|
E|-----------------|---------------------|--------|



Login or Register to remove this ad.

1 comment on Truth

this is pretty cool you know

5

this is pretty cool you know