Ads

Tell Me (Final Fantasy VIII) Guitar Tab

Submitted: Sep 21, 2016 by JordanVS

5
Average: 5 (1 vote)
Download | Listen
Game: Final Fantasy VIII
Composer(s): Nobuo Uematsu
Style: Arrangement, Fingerstyle
Series: Final Fantasy

AutoScroll: Slow | Medium | Fast
Tell Me                                                     
Final Fantasy VIII
Nobuo Uematsu
JordanVS

*Capo on the 5th fret
-Tempo : 70 ~ 4/4


     H           E  E  E  E  E  E  E  E     Q    E  E  H           E  E  E  E  E  E  E  E   
E||-----------|--3--0--3--2--3--0--3--2--|----------------------|--3--0--3--2--3--0--3--2--|
B||-----------|--3--2--3--0--3--2--3--0--|-------0--1--3--------|--3--2--3--0--3--2--3--0--|
G||-----------|--0-----------------------|--L-------------------|--0-----------------------|
D||-----------|--------------------------|----------------------|--------------------------|
A||-----------|--------------------------|----------------------|--------------------------|
E||--3--------|--L-----------------------|----------------------|--3-----------------------|


  Q    E  E  H           E  E  E  E  E  E  E  E     Q    H.              E  E  E  E  E  E  E  E   
----------------------|--3--0--3--2--3--0--3--2--|--------------------|--3--0--3--2--3--0--3--2--|
----------------------|--3--2--3--0--3--2--3--0--|-------3------------|--3--2--3--0--3--2--3--0--|
--L-------0--2--------|--0-----------------------|-------0------------|--0-----------------------|
-------4--------------|--------------------------|--4----L------------|--------------------------|
----------------------|--------------------------|--------------------|--------------------------|
----------------------|--3-----------------------|--------------------|--3-----------------------|

*Segno
  E  E  E  E  E  E  E  E     E  E  E  E  E  E  E  E     E  E  E  E  E  E  E  E     E  E  E  E  E  E  E  E   
--------------0--------4--|--2-----------------------|-----------------------2--|--------0-----0-----------|
--------2--3--------------|--------3-----3-----------|--------0--2--3-----------|--4-----------------------|
-----1-----1-----1-----1--|-----2-----2-----2-----2--|-----1-----1-----2-----2--|-----1-----1-----1-----1--|
--------2-----2-----2-----|--------4-----4-----4-----|--------------4-----4-----|--------2-----2-----2-----|
--0-----------------------|--0-----------------------|--0-----------------------|--0-----------------------|
--------------------------|--------------------------|--------------------------|--------------------------|


  E  E  E  E  E  E  E  E     E  E  E  E  E  E  E  E     E  E  E  E  E  E  E  E   
--------------0--------4--|--2-----------------------|-----------------------2--|
--------2--3--------------|--------3-----3-----------|--------0--2--3-----------|
-----1-----1-----1-----1--|-----2-----2-----2-----2--|-----1-----1-----2-----2--|
--------2-----2-----2-----|--------4-----4-----4-----|--------------4-----4-----|
--0-----------------------|--0-----------------------|--0-----------------------|
--------------------------|--------------------------|--------------------------|


                                   ^                      ^                      ^                    
                    |-3-| |-3-|                                                                       
  E  E  E  E  E  E  S S S S S S    Q    E  E  H           Q    E  E  H           Q    E  E  H         
--------------------------------|--2-------0--2--------|----------------------|--2-------0--2--------|
--0---------------------------2-|--3----3-----3--------|--2----2--3--5--------|--3----3-----3--------|
--------2-----2---------1-2-4---|--2-------------------|--2-------------------|--4-------------------|
-----2-----2-----2--2-4---------|--0----------4--------|--2-------------------|--0----------4--------|
--0-----------------------------|--0-------------------|--0-------------------|--0-------------------|
--------------------------------|----------------------|----------------------|----------------------|


  ^                       ^                      ^                       ^                     
  Q    E  E  Q    Q       Q    E  E  H           Q    E  E  Q    Q       Q    E  E  Q    Q     
-----------------------|--2-------0--2--------|-------4--7--4---------|--2---------------2----|
--2----2--3--5----2----|--3----3-----3--------|--5---------------5----|--3-------2--3---------|
--2--------------------|--2-------------------|--6--------------------|--2----4---------------|
--2--------------------|--0----------4--------|--6--------------------|--4----------6----4----|
--0--------------------|--0-------------------|--4--------------------|--2--------------------|
-----------------------|----------------------|-----------------------|-----------------------|


  E  E  E  E  E  E  E  E     E  E  E  E  E  E  E  E     E  E  E  E  E  E  E  E     E  E  E  E  H         
--0-----------3--2--0-----|--0-----------3--2--0-----|--0-----------0-----------|-----------------------|
-----------1-----------3--|-----------1-----------3--|-----------1-----1--------|--3--------3-----------|
--------0-----------------|--------0-----------------|-----0--2-----------2--0--|--------5--------------|
-----2--------------------|-----2--------------------|--0-----------------------|-----4-----------------|
--3-----------------------|--0-----------------------|--------------------------|--5--------------------|
--------------------------|--------------------------|--------------------------|-----------------------|


  E  E  E  E  E  E  E  E     E  E  E  E  E  E  E  E     E  E  E  E  E  E  E  E     E  E  E  E  E  E  E  E   
--3--0--3--2--3--0--3--2--|--3--0--3--2--3--0--3--2--|--3--0--------------3--2--|--3--0--3--2--3--0--3--2--|
--3--2--3--0--3--2--3--0--|--3--2--3--0--3--2--3--0--|--3--2--0--1--3--L--3--0--|--3--2--3--0--3--2--3--0--|
--------------------------|--------------------------|--------------------------|--------------------------|
--------------------------|--------------------------|--------------------------|--------------------------|
--------------------------|--------------------------|--------------------------|--------------------------|
--3-----------------------|--3-----------------------|--3-----------------------|--3-----------------------|

												   *da Segno
  E  E  E  E  E  E  E  E     E  E  E  E  E  E  E  E     E  E  E  E  E  E  E  E     E  E  E  E  E  E  E  E    
--3--0--------------3--2--|--3--0--3--2--3--0--3--2--|--3--0--3--2--3--0--3--2--|--3--0--3--2--3--0--3--2--||
--3--2--------------3--0--|--3--2--3--0--3--2--3--0--|--3--2--3--0--3--2--3--0--|--3--2--3--0--3--2--3--0--||
-----------0--2--L--------|--------------------------|--------------------------|--------------------------||
--------4-----------------|--------------------------|--0-----------------------|--------------------------||
--------------------------|--------------------------|--------------------------|--2-----------------------||
--3-----------------------|--3-----------------------|--3-----------------------|--------------------------||




Duration Legend
---------------
W - whole
H - half
Q - quarter
E - 8th
S - 16th
T - 32nd
X - 64th
. - note dotted
|-n-|  - n-tuplets


Tablature Legend
----------------
L - tied note
x - dead note
g - grace note
^ - brush up
v - brush down
Login or Register to remove this ad.

1 comment on Tell Me

You really captured this one

You really captured this one well, thank you for posting it =)