Ads

The Successor (Final Fantasy VIII) Guitar Tab

Submitted: Aug 31, 2016 by JordanVS

5
Average: 5 (1 vote)
Download | Listen
Game: Final Fantasy VIII
Composer(s): Nobuo Uematsu
Style: Arrangement, Fingerstyle, Natural harmonics
Series: Final Fantasy

AutoScroll: Slow | Medium | Fast
The Successor                                                 
Final Fantasy VIII
Nobuo Uematsu
JordanVS

-Tempo : 74 ~ 4/4

                                             $       
      E   E   E   Q     E   E   E      Q     H.              W                    E   E  E  Q    E  E   E   
E||--15--14--10------------10--14--|--15------------------|-------------------|--13--12--8----------8--12--|
B||--------------10----------------|--12----15------------|--L----------------|-------------8--------------|
G||--------------------11----------|--------12------------|--L----------------|------------------9---------|
D||--10----------------------------|----------------------|-------------------|---8------------------------|
A||--------------------------------|--14------------------|--L----------------|----------------------------|
E||--------------------------------|----------------------|-------------------|----------------------------|

         $
   Q     H.              W                   E  E  E   E   Q    E  E     E  E  E  E  E  E  E  E   
--13------------------|-------------------|--6-----8--10-----------4--|--5--------------5--7--8--|
--------13------------|--L----------------|---------------10----------|--------------5-----------|
--14------------------|-------------------|----------------7----------|--------2--5--------------|
--------15------------|--L----------------|--------8------------0-----|-----2--------------------|
--12------------------|--L----------------|-----8----------7----------|--0-----------------------|
----------------------|-------------------|--6------------------------|--------------------------|


   Q     E  E  Q    E  E     E   E   E  E  H           W                   W                 
--12----10--8--7-------8--|--8----------------------|--5----------------|--7----------------|
--10-----8-----6----8-----|----------------8--------|--5----------------|--6----------------|
--10-----9-----7----------|-------------9-----------|-------------------|-------------------|
--------------------------|---------10--------------|--7----------------|--7----------------|
--------------------------|-----10------------------|-------------------|-------------------|
--------------------------|--8----------------------|-------------------|-------------------|


  W                   H        H           W                   E  E  Q    E   E  Q     
--8----------------|--7-----------------|--L----------------|--------8-----------8----|
--7----------------|--6-----------------|--L----------------|-------------------------|
-------------------|--------------------|-------------------|-----9----------10-------|
--7----------------|--7-----------------|-------------------|--7----------7-----------|
-------------------|-----------0--------|--L----------------|-------------------------|
-------------------|--------------------|-------------------|-------------------------|


  E  E  Q    E   E  Q       E  E  Q    E   E  Q       E  E  Q    E   E  Q       E  E  E   E   E   E  E   E   
--------8-----------8----|--------8-----------8----|--------8-----------8----|--------7------10---8--7------|
-----7-------------------|-------------------------|-----7-------------------|-----------10-------------10--|
----------------10-------|-----9----------10-------|----------------10-------|-----9--L----------10--L------|
--7----------7-----------|--7----------7-----------|--7----------7-----------|--7-------------7-------------|
-------------------------|-------------------------|-------------------------|------------------------------|
-------------------------|-------------------------|-------------------------|------------------------------|


  E  E  E   E   E    E   E  S  S    E  E  Q    H           E  E  Q    H           E  E  Q    Q    Q     
--7-------------------------3h-5-|--0-------------------|----------------------|-----------------------|
-----7--L--10--------------------|--1-----1----0--------|--------1----1--------|--------1----0----3----|
---------------10--(10)--L-------|--------2----2--------|--------2----2--------|--------2----2----2----|
--7-------------7----------------|--------2----1--------|--------3----2--------|--------2----1----3----|
---------------------------------|--0--3----------------|--0--3----------------|--0--3-----------------|
---------------------------------|----------------------|----------------------|-----------------------|


  W                    E   E   E   E   E   E   E   E      E   E  E   E   E    E   E  S  S  
-------------------|----------10------13--11--10------|--10--------------------------6h-8-|
--1----------------|--------------13--------------13--|------10--L--13--------------------|
--2----------------|------12---L----------13---L------|-----------------13--(13)----------|
--2----------------|--10--------------10--------------|--10-------------10----------------|
-------------------|----------------------------------|-----------------------------------|
-------------------|----------------------------------|-----------------------------------|


  E  E  Q    H           E  E  Q    H           E  E  Q    Q    Q       Q    E  E  E  E  E  E   
--3-------------------|----------------------|-----------------------|-------------------------|
--------4----3--------|--------4----4--------|--------4----3----6----|--4----------------------|
--------5----5--------|--------5----5--------|--------5----5----5----|--5----------------------|
--------5----4--------|--------6----5--------|--------5----4----6----|--5-------0--------------|
--3--6----------------|--3--6----------------|--3--6-----------------|-------6-----3--1--------|
----------------------|----------------------|-----------------------|-------------------4--3--|


  E  E  Q    E  E  Q       E  E  Q    H           W                   Q    E  E  H         
------------------------|--------1-------------|-------------------|-------------2--------|
--------4----------4----|-------------2--------|--L----------------|--4-------6-----------|
--1--0-------1--0-------|--1--0----------------|-------------------|-------------4--------|
-------------1----------|-------------3--------|--L----------------|-------4--------------|
------------------------|--4----------1--------|--L----------------|--2-------------------|
--1---------------------|----------------------|-------------------|----------------------|


  Q    E  E  Q    Q       Q    Q    H           Q    Q    H            Q     E   E   H         
--L----------2----6----|--4---------4--------|------------4--------|--11--------13--14--------|
-------4--6------------|-------6-------------|-------6-------------|----------------12--------|
-------------4---------|------------6--------|------------6--------|--------11----------------|
-------4---------------|-------6-------------|-------6-------------|---9----------------------|
--2--------------------|--4------------------|--4------------------|--------------------------|
-----------------------|---------------------|---------------------|--------------------------|


  Q     E   E   Q     Q        Q     Q     H            Q     Q     H            E   E  E  Q     E  E   E   
--L----11--13--14----18----|--16--------------------|------------------------|--14--13--9-----------9--13--|
---------------12----------|--------------14--------|--14----------14--------|-------------9---------------|
-------11------------------|--------13--------------|--------13--------------|------------------10---------|
--9------------------------|--11--------------------|--11--------------------|---9-------------------------|
---------------------------|------------------------|------------------------|-----------------------------|
---------------------------|------------------------|------------------------|-----------------------------|


   Q     H.               E   E  E  Q    E  E   E      Q     H.               E  E  E  Q    E  E  E   
--14------------------|--12--11--7----------7--11--|--12------------------|--10--9--5----------5--9--|
--------14------------|-------------7--------------|--------12------------|------------5-------------|
----------------------|------------------8---------|----------------------|-----------------6--------|
----------------------|---7------------------------|----------------------|---5----------------------|
--13------------------|----------------------------|--11------------------|--------------------------|
----------------------|----------------------------|----------------------|--------------------------|


                                                                   NH                                       
   E  E   E   Q     E   E   E      E   E  E  Q     E  E   E        W                    H         H         
--10--9--------------------10--|--14--13--9-----------9--13--|----14----------------|--12--------11--------|
---------10------------10------|-------------9---------------|----------------------|----------------------|
-------------------11----------|------------------10---------|----------------------|----------------------|
-------------12----------------|---9-------------------------|----------------------|----------------------|
---9---------------------------|-----------------------------|--<>12----------------|---L------------------|
-------------------------------|-----------------------------|----------------------|----------------------|


  W                   E  E  E  E  E  E  E  E     E  E  E  E  E  E  E  E      E  E  E   E  E   E   E  E   
--9----------------|--------------------------|--------6--4--------9--8--|---------9-------------11--9--|
-------------------|--------6--4--------7--6--|--4--7--------7--4--------|------9-----13--9-------------|
-------------------|-----6--------6-----------|--------------------------|--10---------------10---------|
-------------------|--6--------------6--------|--------------------------|------------------------------|
--L----------------|--4-----------------------|--4-----------------------|------------------------------|
-------------------|--------------------------|--------------------------|---9--------------------------|

						          *
   E  E   E   E   E   E  E  E     E  E  E  E  E  E  E  E      H        E  E  E  E   
------9--14--13--11------9--8--|--6--------------2--6--9--|--14--------L--2--1-----|
--11-----------------11--------|--------------2-----------|---------------------4--|
-------------------------------|-----------3--------------|------------------------|
-------------------------------|--------4-----------------|------------------------|
-------------------------------|-----4--------------------|------------------------|
---9---------------------------|--2-----------------------|------------------------|

        >
  E  E  E  E  E  E  E  E     H        E  E  E  E     E  E  E  E  E  E  E  E     H        E  E  E  E   
--------------4-----------|--------------2--1-----|--1-----------------------|--------------2--1-----|
--6--------6-----6--------|--------------------4--|--------2-----------------|--------------------4--|
--------6-----------6-----|-----------------------|--------------3-----------|-----------------------|
-----6-----------------6--|-----------------------|--------4--6-----6--4-----|-----------------------|
--4-----------------------|--4--------------------|-----4-----------------4--|-----------------------|
--------------------------|-----------------------|--2-----------------------|--2--------------------|

        >
  E  E  E  E  E  E  E  E     Q    Q    Q    Q       W                  
--------------4-----------|----------------------|-------------------||
--6--------6-----6--------|----------------------|-------------------||
--------6-----------6-----|-------3----1---------|--1----------------||
-----6-----------------6--|-------4----3----4----|--3----------------||
--4-----------------------|--4--------------6----|--4----------------||
--------------------------|----------------------|-------------------||



*Alternative way of playing the ending 

    H        E   E   E   E      E   E   E   E  E   E   E   E   
|--14--------L--14--13--11--|--13-------9---------------------|
|---------------------------|------------------9--------------|
|---------------------------|--------------10-----10----------|
|---------------------------|----------11-------------11------|
|---------------------------|------11---------------------11--|
|---------------------------|---9-----------------------------|


  H        E   E   E   E      E   E   E  E   E  E   E   E     H        E   E   E   E   
--------------14--13--11--|--13-------9--------------------|--------------14--13--11--|
--------------------------|--------------9--11--9----------|--------------------------|
--------------------------|----------11------------11------|--------------------------|
--------------------------|------11--------------------11--|--------------------------|
--------------------------|---9----------------------------|--9-----------------------|
--9-----------------------|--------------------------------|--------------------------|


   E   E   E   E  E   E   E   E     Q     Q     Q     Q        W                  
--13-------9---------------------|-------------------------|--------------------||
------------------9--------------|-------11-----9----------|---9----------------||
--------------10-----10----------|-------11----10----11----|--10----------------||
----------11-------------11------|-------------------13----|--11----------------||
------11---------------------11--|-------------------------|--------------------||
---9-----------------------------|--9----------------------|---9----------------||


Duration Legend
---------------
W - whole
H - half
Q - quarter
E - 8th
S - 16th
T - 32nd
X - 64th
. - note dotted
|-n-|  - n-tuplets


Tablature Legend
----------------
L - tied note
x - dead note
g - grace note
(n) - ghost note(ignore it)
$ - echo/delay
> - accentuded note
^ - brush up
v - brush down

Login or Register to remove this ad.

1 comment on The Successor

Awesome!

Awesome!