Ads

The Successor (Final Fantasy VIII) Guitar Tab

Submitted: Jan 09, 2010 by Klamath

4.5
Average: 4.5 (2 votes)
Download | Listen
Game: Final Fantasy VIII
Composer(s): Nobuo Uematsu
Style: Transcription
Series: Final Fantasy

AutoScroll: Slow | Medium | Fast
The Successor - FFVIII

Tab: Klamath
Composed: Nobuo Uematsu 
1/9/2010

E|--3--2------------------2---3------
B|--------3----------3--------0--3~--
G|-----------2-------------------0~--
D|----------------4------------------
A|-----------------------------------
E|-----------------------------------

E|--1--0--------------0--1-------
B|--------1--------1---------1~--
G|-----------0-----------2-------
D|--------------2------------3~--
A|-------------------------------
E|-------------------------------

E|--6----8--10--5----4--5--------
B|-------------------------------
G|-------------------------------
D|-------------------------------
A|-------------------------------
E|-------------------------------
				

E|--12--10--8--7---8--8--
B|-----------------------
G|-----------------------
D|-----------------------
A|-----------------------
E|-----------------------


E|-----------------------
B|-----------------------
G|-----------------------
D|-2-----3-----4-----3---
A|-3-----2-----3-----3---
E|-----------------------

E|--------------------------------------------
B|--------1----------1----------1----------1--
G|--------------------------------------------
D|-----2----------3----------4----------3-----
A|--------------------------------------------
E|--1----------1----------1----------1-------- x2

E|--7--5--10--8--7--5--7----5--1----3h5----
B|-----------------------------------------
G|-----------------------------------------
D|-----------------------------------------
A|-----------------------------------------
E|-----------------------------------------

E|--0-----------------------------------------
B|--1----1----0----------1----1---------------
G|--2----2----2----------2----2---------------
D|--------------------------------------------
A|---------------(0)(3)-----------------------
E|--------------------------------------------

E|-------------------------------------
B|--1----0----3----1~------------------
G|--2----2----2----2~------------------
D|-------------------------------------
A|-------------------------------------
E|-------------------------------------

E|--10--8--13--11--10--8--10----8--4----6h8--3--
B|----------------------------------------------
G|----------------------------------------------
D|----------------------------------------------
A|----------------------------------------------
E|----------------------------------------------
						
E|--------------------------------
B|-----4-----3----------4-----4---
G|-----5-----5----------5-----5---
D|-----------------(2)------------
A|--------------(3)---------------
E|--------------------------------

E|--------------------------
B|----4-----3-----6-----4---
G|----5-----5-----5-----5---
D|--------------------------
A|--------------------------
E|--------------------------

E|------------------------------1--------
B|--------4----------4-------------2~----
G|--1--0-------1--0-------1--0-----------
D|---------------------------------------
A|---------------------------------------
E|---------------------------------------

E|-----1--2-------1--2--6--4------11--13--14----11--13--14--18--16--
B|--4----------4----------------------------------------------------
G|------------------------------------------------------------------
D|------------------------------------------------------------------
A|------------------------------------------------------------------
E|------------------------------------------------------------------
Login or Register to remove this ad.

1 comment on The Successor

Awesome

5

Awesome tab man