Ads

Succession of Witches (Final Fantasy VIII) Guitar Tab

Submitted: Jan 23, 2015 by Exdeath

5
Average: 5 (4 votes)
Download | Listen
Game: Final Fantasy VIII
Composer(s): Nobuo Uematsu
Style: Arrangement, Fingerstyle, Natural harmonics
Series: Final Fantasy

AutoScroll: Slow | Medium | Fast
  Succession Of Witches                               


                          Q     Q     H            Q     Q     H         
E||-------------------|--12----11----12--------|--12----11----13--------|
B||-------------------|--------------12--------|--------------12--------|
G||-------------------|---9-----------9--------|--10----------10--------|
D||-------------------|------------------------|------------------------|
A||-------------------|------------------------|------------------------|
E||-------------------|------------------------|------------------------|


   Q     Q     H            W                   W                 
--12----11----12--------|--17----------------|--L----------------|
--------------13--------|--------------------|-------------------|
--11----------11--------|--14----------------|--L----------------|
------------------------|--15----------------|--L----------------|
------------------------|--------------------|-------------------|
------------------------|--------------------|-------------------|


  W                   Q    Q    H           Q    Q    H         
--L----------------|------------7--------|------------7--------|
-------------------|--5----4----5--------|--5----4----6--------|
--L----------------|--5------------------|--5------------------|
--L----------------|--2------------------|--3------------------|
-------------------|--0---------L--------|--0---------L--------|
-------------------|---------------------|---------------------|


  Q    Q    H           W                   W                 
------------8--------|--5----------------|--L----------------|
--5----4----5--------|-------------------|-------------------|
--5------------------|--5----------------|--L----------------|
--4------------------|--3----------------|--L----------------|
--0---------L--------|--0----------------|--L----------------|
---------------------|-------------------|-------------------|


  W                   E  E  E  E  E  S E.  E     E  E  E  E  E  S E.  E   
--L----------------|--5--L--5--L--------------|--5--L--5--L--------------|
-------------------|--------------------------|--------------------------|
--L----------------|--------------------------|--------0-----------------|
--L----------------|-----2--3--2-----2-----2--|-----3-----3-----3-----3--|
--L----------------|--0-----------0-----------|--0-----------0-----------|
-------------------|--------------------------|--------------------------|


  E  E  E  E  E  S E.  E     E  E  E  E  E  S E.  E   
--5--L--5--L--------------|--5--5--5--L--------------|
--------------------------|--------------------------|
--------0-----------------|--------0-----------------|
-----4-----4-----4-----4--|-----3-----3-----3-----3--|
--0-----------0-----------|--0-----------0-----------|
--------------------------|--------------------------|


  E  E  E  E  E  E  E  E     E  E  E  E  E  E  E  E   
--------0--L--------------|--------------------------|
--0-----------4-----------|-----------------------L--|
-----2--2-----------2-----|--------2-----------2-----|
-----2-----2-----3-----3--|-----4-----4-----3-----3--|
--0-----------0-----------|--0-----------0-----------|
--------------------------|--------------------------|


  E   E   E  E   E  E  E  E     E  E  E  E  E  E  E  E   
--7------12--L--11--------L--|--------------------------|
-----10----------------------|--------------------------|
-----------------------------|--------2-----------2-----|
----------7------------7-----|-----4-----4-----3-----3--|
--0---7------7---0--8-----8--|--0-----------0-----------|
-----------------------------|--------------------------|


  E  E  E  E  E   E   E  E      E  E   E  E  E   E   E   E   
--5--L--5--L-----12--10--8--|---7--L------------13--12--10--|
--5--L--5--L----------------|--10--L--10--L-----------------|
----------------------------|--10--L--10--L-----------------|
----------------------------|-------------------------------|
-----7--8--7--0---7------7--|---0--8--10--8--0---8-------8--|
--5-------------------------|-------------------------------|


                                             |---3---|              
   E  E   E  E  E   E  E  E      E   E   E   S   S   S E  E  E  E   
---8--L----------------7--8--|--10---L------10h-12p-10-8--L--7--L--|
--10-----10--------10--------|--10--10--10-------------------------|
--11-----11------------------|--10--10--10-------------------------|
-----------------------------|-------------------------------9-----|
---0--9--10--9--0---9-----9--|---0---8--10---8---------0--8-----8--|
-----------------------------|-------------------------------------|


  E  E  E  E  E  S E.  E     E  E  E  E  E  S E.  E   
--5--------------------L--|--5--------------------L--|
--------------------------|--------------------------|
--------------------------|--------------------------|
--------------------------|--------------------------|
-----6--9--6-----6-----6--|-----5--8--5-----5-----5--|
--5-----------5-----------|--5-----------5-----------|


  E  E  E  E  E  E  E  E     E  E  E  E  E  E   E  E   
--------------------------|--------7--5--8--7--10--7--|
-----------------------6--|--5--4---------------------|
--------------5--4--7-----|--5-----7-----8------9-----|
-----------7-----------3--|---------------------------|
-----7--8-----------5-----|---------------------------|
--5-----------8--7--------|---------------------------|


  S E.  S E.  S E.  Q       S E.  S E.  S E.  Q     
-------------------------|-------------------------|
-------------------------|-------------------------|
--2-----2-----2----------|--2-----2-----2----------|
--2-----2-----2----------|--1-----1-----1----------|
--0-----0-----0----------|--0-----0-----0----------|
--2-----2-----2----------|--1-----1-----1----------|


                       NH                           NH    
  S E.  S E.  S E.     Q       S E.  S E.  S E.     Q     
----------------------------|----------------------------|
--------------------<>13----|--------------------<>12----|
--2-----2-----2-------------|--2-----2-----2-------------|
--2-----2-----2-------------|--1-----1-----1-------------|
--0-----0-----0-------------|--0-----0-----0-------------|
--2-----2-----2-------------|--1-----1-----1-------------|


  E  E  E   E  E   E  E  E     E  E   E  E  Q    E  E   
--------7---L---------------|--------------------------|
--5--L------------10--8--7--|--6--8--10-----8----6-----|
----------------------------|------------8----------8--|
--7-----7------7------------|--7------7-----7----------|
--7-----7------7------------|--6------6-----6----------|
----------------------------|--------------------------|


  E  E  E  E  E  E  Q       E  E  E  E  E  E  E  E     E  E  Q    E  E  Q     
-------------------------|--------------1--0--------|--------2----0----------|
--5--L--0--1--3--1--0----|--------1--3--------3-----|--0--L----------3--1----|
--2----------------------|--2--3-----------------3--|------------------------|
--2-----2-----2----------|--1-----1-----1-----------|--------0----2----------|
--3-----3-----3----------|--2-----2-----2-----------|--------2----2----------|
-------------------------|--------------------------|--0--3------------------|


  E  E  E  E  Q    E  E     E  E  E  E  E  E  E  E     E  E  E  E  E  E  E  E   
-------------------------|--------------------------|-----------------0--1-----|
--0--1--3----------------|-----------------1--3--5--|--------------3--------3--|
-----------2--5----4--2--|--4--L--0--2--4-----------|--7--5--4--5--------1--4--|
--------2-----3----------|--------2--0-----0--2--0--|--------3--2-----2--------|
-----0--3-----3----------|-----5--------------------|-----7--------2-----------|
--1----------------------|--3-----------3-----------|--4-----------------------|


  Q    Q    H           Q    Q    H           Q    Q    H         
--0---------0--------|--0---------1--------|--0---------0--------|
-------4-------------|-------4----0--------|-------4-------------|
------------4--------|---------------------|------------5--------|
--2---------2--------|--3---------3--------|--4---------4--------|
---------------------|---------------------|---------------------|
---------------------|---------------------|---------------------|


  W                   W                   W                 
--5----------------|--L----------------|--L----------------|
-------------------|-------------------|-------------------|
--2----------------|--L----------------|--L----------------|
--3----------------|--L----------------|--L----------------|
-------------------|-------------------|-------------------|
-------------------|-------------------|-------------------|


  Q    Q    H           Q    Q    H           Q    Q    H         
------------7--------|------------7--------|------------8--------|
--5----4----5--------|--5----4----6--------|--5----4----5--------|
--5------------------|--5------------------|--5------------------|
--2------------------|--3------------------|--4------------------|
--0---------L--------|--0---------L--------|--0---------L--------|
---------------------|---------------------|---------------------|


  W                   W                   W                 
--5----------------|--L----------------|--L----------------|
-------------------|-------------------|-------------------|
--5----------------|--L----------------|--L----------------|
--3----------------|--L----------------|--L----------------|
--0----------------|--L----------------|--L----------------|
-------------------|-------------------|-------------------|


  E  E  E  E  E  S E.  E     E  E  E  E  E  S E.  E   
--5--L--5--L--------------|--5--L--5--L--------------|
--------------------------|--------------------------|
--------------------------|--------0-----------------|
-----2--3--2-----2-----2--|-----3-----3-----3-----3--|
--0-----------0-----------|--0-----------0-----------|
--------------------------|--------------------------|


  E  E  E  E  E  S E.  E     E  E  E  E  E  S E.  E   
--5--L--5--L--------------|--5--5--5--L--------------|
--------------------------|--------------------------|
--------0-----------------|--------0-----------------|
-----4-----4-----4-----4--|-----3-----3-----3-----3--|
--0-----------0-----------|--0-----------0-----------|
--------------------------|--------------------------|


  E  E  E  E  E  E  E  E     E  E  E  E  E  E  E  E   
--------0--L--------------|--------------------------|
--0-----------4-----------|-----------------------L--|
-----2--2-----------2-----|--------2-----------2-----|
-----2-----2-----3-----3--|-----4-----4-----3-----3--|
--0-----------0-----------|--0-----------0-----------|
--------------------------|--------------------------|


  E   E   E  E   E  E  E  E     E  E  E  E  E  E  E  E   
--7------12--L--11--------L--|--------------------------|
-----10----------------------|--------------------------|
-----------------------------|--------2-----------2-----|
----------7------------7-----|-----4-----4-----3-----3--|
--0---7------7---0--8-----8--|--0-----------0-----------|
-----------------------------|--------------------------|


  E  E  E  E  E   E   E  E      E  E   E  E  E   E   E   E   
--5--L--5--L-----12--10--8--|---7--L------------13--12--10--|
--5--L--5--L----------------|--10--L--10--L-----------------|
----------------------------|--10--L--10--L-----------------|
----------------------------|-------------------------------|
-----7--8--7--0---7------7--|---0--8--10--8--0---8-------8--|
--5-------------------------|-------------------------------|


                                             |---3---|              
   E  E   E  E  E   E  E  E      E   E   E   S   S   S E  E  E  E   
---8--L----------------7--8--|--10---L------10h-12p-10-8--L--7--L--|
--10-----10--------10--------|--10--10--10-------------------------|
--11-----11------------------|--10--10--10-------------------------|
-----------------------------|-------------------------------9-----|
---0--9--10--9--0---9-----9--|---0---8--10---8---------0--8-----8--|
-----------------------------|-------------------------------------|


  E  E  E  E  E  S E.  E     E  E  E  E  E  S E.  E   
--5--------------------L--|--5--------------------L--|
--------------------------|--------------------------|
--------------------------|--------------------------|
--------------------------|--------------------------|
-----6--9--6-----6-----6--|-----5--8--5-----5-----5--|
--5-----------5-----------|--5-----------5-----------|


  E  E  E  E  E  E  E  E     E  E  E  E  E  E   E  E   
--------------------------|--------7--5--8--7--10--7--|
-----------------------6--|--5--4---------------------|
--------------5--4--7-----|--5-----7-----8------9-----|
-----------7-----------3--|---------------------------|
-----7--8-----------5-----|---------------------------|
--5-----------8--7--------|---------------------------|


  S E.  S E.  S E.  Q       S E.  S E.  S E.  Q     
-------------------------|-------------------------|
-------------------------|-------------------------|
--2-----2-----2----------|--2-----2-----2----------|
--2-----2-----2----------|--1-----1-----1----------|
--0-----0-----0----------|--0-----0-----0----------|
--2-----2-----2----------|--1-----1-----1----------|


                       NH                           NH    
  S E.  S E.  S E.     Q       S E.  S E.  S E.     Q     
----------------------------|----------------------------|
--------------------<>13----|--------------------<>12----|
--2-----2-----2-------------|--2-----2-----2-------------|
--2-----2-----2-------------|--1-----1-----1-------------|
--0-----0-----0-------------|--0-----0-----0-------------|
--2-----2-----2-------------|--1-----1-----1-------------|


  E  E  E   E  E   E  E  E     E  E   E  E  Q    E  E   
--------7---L---------------|--------------------------|
--5--L------------10--8--7--|--6--8--10-----8----6-----|
----------------------------|------------8----------8--|
--7-----7------7------------|--7------7-----7----------|
--7-----7------7------------|--6------6-----6----------|
----------------------------|--------------------------|


  E  E  E  E  E  E  Q       E  E  E  E  E  E  E  E     E  E  Q    E  E  Q     
-------------------------|--------------1--0--------|--------2----0----------|
--5--L--0--1--3--1--0----|--------1--3--------3-----|--0--L----------3--1----|
--2----------------------|--2--3-----------------3--|------------------------|
--2-----2-----2----------|--1-----1-----1-----------|--------0----2----------|
--3-----3-----3----------|--2-----2-----2-----------|--------2----2----------|
-------------------------|--------------------------|--0--3------------------|


  E  E  E  E  Q    E  E     E  E  E  E  E  E  E  E     E  E  E  E  E  E  E  E   
-------------------------|--------------------------|-----------------0--1-----|
--0--1--3----------------|-----------------1--3--5--|--------------3--------3--|
-----------2--5----4--2--|--4--L--0--2--4-----------|--7--5--4--5--------1--4--|
--------2-----3----------|--------2--0-----0--2--0--|--------3--2-----2--------|
-----0--3-----3----------|-----5--------------------|-----7--------2-----------|
--1----------------------|--3-----------3-----------|--4-----------------------|


  Q    Q    H           Q    Q    H           Q    Q    H         
--0---------0--------|--0---------1--------|--0---------0--------|
-------4-------------|-------4----0--------|-------4-------------|
------------4--------|---------------------|------------5--------|
--2---------2--------|--3---------3--------|--4---------4--------|
---------------------|---------------------|---------------------|
---------------------|---------------------|---------------------|


  W                   W                   W                 
--5----------------|--L----------------|--L----------------|
-------------------|-------------------|-------------------|
--2----------------|--L----------------|--L----------------|
--3----------------|--L----------------|--L----------------|
-------------------|-------------------|-------------------|
-------------------|-------------------|-------------------|


  Q    Q    H           Q    Q    H           Q    Q    H         
------------7--------|------------7--------|------------8--------|
--5----4----5--------|--5----4----6--------|--5----4----5--------|
--5------------------|--5------------------|--5------------------|
--2------------------|--3------------------|--4------------------|
--0---------L--------|--0---------L--------|--0---------L--------|
---------------------|---------------------|---------------------|


  W                   W                   W                 
--5----------------|--L----------------|--L----------------|
-------------------|-------------------|-------------------|
--5----------------|--L----------------|--L----------------|
--3----------------|--L----------------|--L----------------|
--0----------------|--L----------------|--L----------------|
-------------------|-------------------|-------------------|


-------------------||
-------------------||
-------------------||
-------------------||
-------------------||
-------------------||
Login or Register to remove this ad.