Ads

Succession of Witches (Final Fantasy VIII) Guitar Tab

Submitted: Nov 30, 2009 by trickypat (Last updated: Nov 30, 2009)

4.8
Average: 4.8 (10 votes)
Download | Listen
Game: Final Fantasy VIII
Composer(s): Nobuo Uematsu
Style: Arrangement, Fingerstyle
Series: Final Fantasy

AutoScroll: Slow | Medium | Fast
Succession of the Witches
Final Fantasy VIII
Composed by Nobuo Uematsu
Arranged by trickypat
TablEdited by trickypat
Made at November 29th, 2009

V1.00

Tempo: 95bpm

Capo at 5

Did this in one afternoon. A couple notes:
- Sometimes I didn't go up because you would be very close at the
center of the guitar. E.g. measure 4 and 5 aren't higher than 
measure 1 and 2, but remain at the same level.
- Measures 7 until 10 has the '0's at the high E string; this can
also be sung instead of played. The text is "Fithos... Lusec....
Wecos... Vinosec"
- Measure 13 has the only place where the bass notes need to go up,
otherwise it can't be played physically. I could have stayed the same
level, but this is doable.
- Measure 18 count 2 should have an extra note (2-4-2), 
but otherwise it doesn't fit this tab, so this is a nice solution.
- Measures 23 until 28 could have bigger accords, but that would be 
inconsistent and not possible to play those when also playing 
the melody
- Final measure has an extra 0 on the low E string just to finish,
but you can also play from the beginning again; 
gotta love game music...

Enjoy!

   |       |       |       |        |       |       |       |        
E |--------2---------------2-------|--------3-------0---------------|
B |--------0---------------1-------|--------2-------1---------------|
G |4---3-----------4---3-----------|4---3---------------------------|
D |2---------------2---------------|2-------------------------------|
A |--------------------------------|--------------------------------|
E |--------------------------------|--------------------------------|
 
   |       |       |       |        |       |       |       |        
E |--------------------------------|--------2---------------2-------|
B |--------------------------------|--------0---------------1-------|
G |--------------------------------|4---3-----------4---3-----------|
D |--------------------------------|2---------------2---------------|
A |--------------------------------|--------------------------------|
E |--------------------------------|--------------------------------|
 
   |       |       |       |        |       |       |       |        
E |--------3-------0---------------|--------------------------------|
B |--------2-------1---------------|--------------------------------|
G |4---3---------------------------|--------------------------------|
D |2-------------------------------|--------------------------------|
A |--------------------------------|--------------------------------|
E |--------------------------------|--------------------------------|
 
   |       |       |       |        |       |       |       |        
E |0-------0-----------------------|0-------0-----------------------|
B |--------------------------------|--------------------------------|
G |--------------------------------|--------------------------------|
D |--------------------------------|--------0-----------------------|
A |----2---3---2-------2-------2---|----3-------3-------3-------3---|
E |0---------------0---------------|0---------------0---------------|
 
   |       |       |       |        |       |       |       |        
E |0-------0-----------------------|0---0---0-----------------------|
B |--------------------------------|--------------------------------|
G |--------------------------------|--------------------------------|
D |--------0-----------------------|--------------------------------|
A |----4-------4-------4-------4---|----3-------3-------3-------3---|
E |0---------------0---------------|0---------------0---------------|
 
   |       |       |       |        |       |       |       |        
E |--------------------------------|--------------------------------|
B |--------0-----------------------|--------------------------------|
G |----------------3---------------|--------------------------------|
D |2---1---2---------------2-------|--------2---------------2-------|
A |----2-------2-------3-------3---|----4-------4-------3-------3---|
E |0---------------0---------------|0---------------0---------------|
 
   |       |       |       |        |       |       |       |        
E |0-------7-------6---------------|--------------------------------|
B |----4---5-----------------------|--------------------------------|
G |----4-------4-------------------|--------------------------------|
D |2-----------------------2-------|--------2---------------2-------|
A |--------------------3-------3---|----4-------4-------3-------3---|
E |----------------0---------------|0---------------0---------------|
 
   |       |       |       |        |       |       |       |        
E |0-------0-----------------------|0-------0-----------------------|
B |--------------------0-----------|--------------------1---0-------|
G |------------------------2---0---|----------------------------2---|
D |--------------------------------|4-------------------------------|
A |----2---3---2-------2-------2---|----3---5---3-------3-------3---|
E |0---------------0---------------|0---------------0---------------|
 
   |       |       |       |        |       |       |       |        
E |0-------0-----------------------|0---0---0-----------------------|
B |--------------------------------|--------------------------------|
G |0---------------------------0---|2-----------4-2-0---------------|
D |--------0-----------2---4-------|--------0---------------4-------|
A |----4-------4-------4-------4---|----3-------3-------3-------3---|
E |0---------------0---------------|0---------------0---------------|
 
   |       |       |       |        |       |       |       |        
E |--------------------------------|--------------------------------|
B |--------------------------------|--------------------------------|
G |--------------------------------|--------------------------------|
D |2-------------------------------|--------------------------------|
A |----1---4---1-------1-------1---|----0---3---0-------0-------0---|
E |0---------------0---------------|0---------------0---------------|
 
   |       |       |       |        |       |       |       |        
E |--------------------------------|--------2---0---3---2---5---2---|
B |----------------------------1---|0-------------------------------|
G |----------------0-------2-------|----3---2-------3-------4-------|
D |------------2-------4-----------|--------------------------------|
A |----2---3-----------------------|--------------------------------|
E |0-------------------------------|--------------------------------|
 
   |       |       |       |        |       |       |       |        
E |--------------------------------|--------------------------------|
B |--------------------------------|--------------------------------|
G |--------------------------------|--------------------------------|
D |--------------------------------|--------------------------------|
A |2-------2-------2---------------|1-------1-------1---------------|
E |0-------0-------0---------------|0-------0-------0---------------|
 
   |       |       |       |        |       |       |       |        
E |------------------------3-------|------------------------2-------|
B |--------2-----------------------|--------1-----------------------|
G |--------------------------------|--------------------------------|
D |--------------------------------|--------------------------------|
A |2-------2-------2---------------|1-------1-------1---------------|
E |0-------0-------0---------------|0-------0-------0---------------|
 
   |       |       |       |        |       |       |       |        
E |--------2-----------0-----------|--------0-----------------------|
B |0-----------------------3---2---|1---3-----------3-------1-------|
G |--------------------------------|------------2---------------3---|
D |--------------------------------|--------------------------------|
A |2-------2-------2---------------|1-------1-------1---------------|
E |0-------0-------0---------------|0-------0-------0---------------|
 
   |       |       |       |        |       |       |       |        
E |--------------------------------|--------------------------------|
B |0-------------------------------|----------------1---0-----------|
G |------------0---2---0-----------|--------0---2-------------------|
D |--------4---------------4-------|2---4-------------------4-------|
A |2-------2-------2---------------|0-------0-------0---------------|
E |0-------0-------0---------------|2-------2-------2---------------|

   |       |       |       |        |       |       |       |        
E |--------------------------------|--------------------------------|
B |--------2-------0---------------|--------------------------------|
G |--------------------2---0-------|----0---2-------0---------------|
D |4-----------------------0---2---|4-----------2-----------4---2---|
A |2---------------2---4-----------|4-------------------------------|
E |--------------------------------|--------3-----------------------|
 
   |       |       |       |        |       |       |       |        
E |--------------------------------|--------------------------------|
B |----------------------------0---|--------------------0---2-------|
G |--------------------0---2---0---|2---0-------0---2-----------2---|
D |4-------0---2---4---2---4-------|1-------4-----------------------|
A |5-------------------------------|--------2-----------------------|
E |--------------------------------|--------------------------------|
 
   |       |       |       |        |       |       |       |        
E |--------2---------------2-------|--------3-------0---------------|
B |--------0---------------1-------|--------2-------1---------------|
G |4---3-----------4---3-----------|4---3---------------------------|
D |2---------------2---------------|2-------------------------------|
A |--------------------------------|--------------------------------|
E |--------------------------------|------------------------0-------|

Created with TablEdit http://www.tabledit.com/
Login or Register to remove this ad.

3 comments on Succession of Witches

That's pretty good. The

4

That's pretty good. The haunting melody carries out well and its got this nice simplicity to it.

Thanks, exilehunter

It indeed is very haunting. I had my doubts before tabbing, but it worked.

Very nice! Pretty tough

5

Very nice!

Pretty tough though. :p Worth the admission though just for the intro part, pretty sweet.