Ads

The Stage is Set (Final Fantasy VIII) Guitar Tab

Submitted: Apr 27, 2011 by Max_depa

5
Average: 5 (6 votes)
Download | Listen
Game: Final Fantasy VIII
Composer(s): Nobuo Uematsu
Style: Arrangement, Fingerstyle
Series: Final Fantasy

AutoScroll: Slow | Medium | Fast
The stage is set - Final Fantasy VIII
Arranged by: Max_depa
Composed by: Nobuo Eumatsu

     E  E  Q    E  E  Q       E  E  E  E  E  E  Q       E  E  Q    E  E  Q     
E||------------------------|-------------------------|------------------------|
B||------------------------|-------------------------|-----4--3-------4--3----|
G||-----1--0-------1--0----|-----1--0--1-----1--0----|--5----------5----------|
D||--3----------3----------|--3-----------3----------|--3----------3----------|
A||------------------------|-------------------------|------------------------|
E||------------------------|-------------------------|------------------------|


  E  E  E  E  E  E  Q         S S E  Q    E  E  E  E   
-------------------------||---------------------------|
-----4--3--4-----4--3----||---3-3-3----------3--------|
--5-----------5----------||*-----------------------2--|
--3-----------3----------||*--0------2----0--3--2-----|
-------------------------||---------------------------|
-------------------------||---------------------------|


  E  E  E  E  E  E  Q       S S E  Q    E  E  E  E     E  E  E  E  E  E  E  E   
--------------0-----3----|--1-1-1----------1--------|-----0--------------------|
-----1-------------------|-----------------------3--|-----------------1-----1--|
-------------------------|--------------------------|--------------------2-----|
--0--3--2--3--0--3--2----|--0------2----0--3--2-----|--0--3--2--3--0--3--2-----|
-------------------------|--------------------------|--------------------------|
-------------------------|--------------------------|--------------------------|


  S S E  Q    E  E  Q       E  E  E  E  E  E  Q       E  E  Q    E  E  Q     
-------------------------|-------------------------|------------------------|
--3-3-3------------------|-------------------------|------------------------|
-------------------------|-------------------------|------------------------|
--0------2----0--3--2----|--0--3--2--3--0--3--2----|--0--3--2----0--3--2----|
-------------------------|-------------------------|------------------------|
-------------------------|-------------------------|------------------------|


  E  E  E  E  E  E  Q       S S E  Q    E  E  E  E     E  E  E  E  E  E  Q     
-------------------------|--1-1-1----------1--------|--------------3-----6----|
-------------------------|-----------------------1--|-----4-------------------|
-------------------------|---------0-------1--0-----|--------0--1-----1--0----|
--0--3--2--3--0--3--2----|--3-----------3-----------|--3-----------3----------|
-------------------------|--------------------------|-------------------------|
-------------------------|--------------------------|-------------------------|


  S S E  Q    E  E  E  E     E  E  E  E  E  E  E  E     S S E  Q    E  E  Q     
--4-4-4----------4-----1--|-----3--------------------|--1-1-1------------------|
--------------------------|-----------------4--1--4--|-------------------------|
---------0-------1--0-----|-----1--0--1--------0-----|---------0-------1--0----|
--3-----------3-----------|--3-----------3-----------|--3-----------3----------|
--------------------------|--------------------------|-------------------------|
--------------------------|--------------------------|-------------------------|


  E  E  E  E  E  E  Q       E  E  Q    E  E  Q       E  E  E  E  E  E  Q     
-------------------------|------------------------|-------------------------|
-------------------------|------------------------|-------------------------|
-----1--0--1-----1--0----|-----1--0-------1--0----|-----1--0--1-----1--0----|
--3-----------3----------|--3----------3----------|--3-----------3----------|
-------------------------|------------------------|-------------------------|
-------------------------|------------------------|-------------------------|


  S S E  Q    E  E  E  E     E  E  E  E  E  E  Q       S S E  Q    E  E  E  E   
--------------------------|--------------0-----3----|--1-1-1----------1--------|
--3-3-3----------3--------|-----1-------------------|-----------------------3--|
-----------------------2--|--------------------0----|---------2----------------|
--0------3----0--3--0-----|--0--3--2--3--0--3--2----|--0------2----0--3--3-----|
--------------------------|-------------------------|--------------------------|
--------------------------|-------------------------|--------------------------|


  E  E  E  E  E  E  E  E     S S E  Q    E  E  Q       E  E  E  E  E  E  Q     
-----0--------------------|-------------------------|--------------0----------|
-----------------1-----1--|--3-3-3------------------|--3----------------------|
--------0-----------2-----|--------------------2----|-------------------------|
--0--3--2--3--0--3--2-----|--0------3----0--3--2----|--0--3--2--3--0--3--2----|
--------------------------|-------------------------|-------------------------|
--------------------------|-------------------------|-------------------------|


  E  E  E  S S Q.     S S    E  S S E  S S H           S S E  Q    E  E  E  E   
--1-----------------------|------------1---1--------|--1-1-1----------1--------|
--------------------------|-----3---3----3----------|-----------------------1--|
----------------------2---|--2----2-----------------|---------1-------1--------|
--0--3--2--3-0-3--------3-|-------------------------|--3-----------3-----3-----|
--------------------------|-------------------------|--------------------------|
--------------------------|-------------------------|--------------------------|


  E  E  E  E  E  E  Q       S S E  Q    E  E  E  E     E  E  E  E  E  E  E  E   
--------------3-----6----|--4-4-4----------4-----1--|-----3--------------------|
-----4-------------------|---------1----------------|-----------------4--1--4--|
--------0--1-----1-------|---------0----------1-----|--------3--1-----1--------|
--3-----------3----------|--3-----------3-----------|--3-----------3-----------|
-------------------------|--------------------------|--------------------------|
-------------------------|--------------------------|--------------------------|


  S S S Q    S H           H        H           Q    Q    Q    Q     
--1-1-1-----------------|--------------------|--2---------2---------|
------------------------|--0--------2--------|--3-------------------|
--1------------3--------|--1--------3--------|--4-------------------|
--3------------5--------|--------------------|----------------------|
------------------------|-----------1--------|--2----2----2----2----|
--1-----L----L-3--------|--4-----------------|----------------------|


  Q    Q    Q    Q       Q    Q    Q    Q       Q    Q    Q    Q     
--0---------2---------|--3---------3---------|--0---------2---------|
----------------------|----------------------|----------------------|
----------------------|----------------------|----------------------|
----------------------|----------------------|----------------------|
--2----2----2----2----|--2----2----2----2----|--2----2----2----2----|
----------------------|----------------------|----------------------|


  E  E  E  E  Q    Q       Q    Q    Q    Q       Q    Q    Q    Q     
--5--3-----0--2---------|----------------------|----------------------|
------------------------|----------------------|----------------------|
------------------------|----------------------|------------0---------|
------------------------|----------------------|--3-------------------|
--2-----2-----2----2----|--2----2----2----2----|--5----5----5----5----|
------------------------|----------------------|----------------------|


  Q    Q    Q    Q        Q    Q    Q    Q       Q    Q    Q    Q     
----------------------|---8---------8---------|--6---------8---------|
------------0---------|-----------------------|----------------------|
--2-------------------|-----------------------|----------------------|
--0----0----0----0----|--10-------------------|----------------------|
----------------------|---8----8----8----8----|--8----8----8----8----|
----------------------|-----------------------|----------------------|


  Q    Q    Q    Q       Q    Q    Q    Q        E  E  E   E  Q    Q     
--9---------9---------|--6---------8---------|--11--9---------8---------|
----------------------|----------------------|------------11------------|
----------------------|----------------------|--------------------------|
----------------------|----------------------|--------------------------|
--8----8----8----8----|--8----8----8----8----|---8-----8------8----8----|
----------------------|----------------------|--------------------------|


                                                         |-3-|             
  Q    Q    Q    Q       Q    Q    Q    Q       H        S S S E  S E.     
----------------------|----------------------|-----------------1---------||
----------------------|----------------------|--1--------1-2-4-----------||
----------------------|--1---------3---------|--------------------3-1---*||
----------------------|--3----3----3----3----|--3-----------------------*||
--8----8----8----8----|----------------------|---------------------------||
----------------------|----------------------|---------------------------||




Duration Legend
---------------
W - whole
H - half
Q - quarter
E - 8th
S - 16th
T - 32nd
X - 64th
. - note dotted
|-n-|  - n-tuplets


Tablature Legend
----------------
L - tied note
x - dead note
g - grace note
(n) - ghost note
> - accentuded note
NH - natural harmonic
AH - artificial harmonic
TH - tapped harmonic
SH - semi harmonic
PH - pitch harmonic
h - hammer on
p - pull off
b - bend
br - bendRelease
pb - preBend
pbr - preBendRelease
brb - bendReleaseBend
\n/ - tremolo bar dip
\n - tremolo bar dive
-/n - tremolo bar Release up
/n\ - tremolo bar inverted dip
/n - tremolo bar return
-\n - tremolo bar Release down
S - shift slide
s - legato slide
/ -  slide into from below or out of upwards
\ -  slide into from above or out of downwards
~ - vibrato
W - wide vibrato
tr - trill
TP - tremolo picking
T - tapping
S - slap
P - pop
< - fade in
^ - brush up
v - brush down
Login or Register to remove this ad.

2 comments on The Stage is Set

i like your fingerstyle tabs

5

FFVIII rules :)

thanks man! really

thanks man! really appreciated =D yes it's an awesome game with an awesome soundtrack^^