Slide Show Part 2 (Duet) (Final Fantasy VIII) Guitar Tab

Submitted: Dec 27, 2016 by JordanVS

0
Download | Listen
Game: Final Fantasy VIII
Composer(s): Nobuo Uematsu
Style: 2 or more instruments, Arrangement, Fingerstyle
Series: Final Fantasy

AutoScroll: Slow | Medium | Fast
Slide Show Part 2                                               
Piano Collections
Final Fantasy VIII
Nobuo Uematsu & Shiro Hamaguchi 
JordanVS

A duet based on the Piano Collections version.
Tempo : 108 ~ 4/4

1:
-Capo on the 3rd Capo

     S S S S S S S S S S E  E  E     S E  S S S S S E  E  E  E       S S S S S S S S S S S S S S S S  
E||-------------------------------|-----------------------0-----||-----0-----2---0-2---0-------------|
B||----3-2------------------2-----|--0--------------------0-----||-----1-2---3-4-----4---1-2---------|
G||----3---1---1------------3-----|--1-2--1-----1---------1-----||*--------2-----------------2-0---0-|
D||------------3-4-2---1-2--------|----4--2---4---4-2-----2-----||*------------------------------2---|
A||-------------------------------|-----------0-2-0-------------||-----------------------------------|
E||-------------------------------|-----------------4-----------||-----------------------------------|


  S S S S S S S S Q    Q       S S S S S S S S S S S S S S S S    S E  S S S E  Q    Q     
----------------------------|----0-----2---0-2---0-------------|----------------0---------|
------0-3-L-3-1-0-----------|----1-2---3-4-----4---1-2---------|--0-0--0-L---0--0---------|
----2---0-L-0-----2---------|--------2-----------------2-0---0-|--1-1--1-L-3-1--1---------|
--4-------------------------|------------------------------2---|-----------5--------------|
----------------------------|----------------------------------|--------------------------|
----------------------------|----------------------------------|--------------------------|


  S S S S S S S S S S S S S S S S    S S S S S S S S Q    Q       S S S S Q    S S S S S E  S  
----0-----2---0-2---0-------------|----------------------------|-------------------------0--0-|
----1-2---3-4-----4---1-2---------|------0-3-L-3-1-0-----------|--------0-L----2-3---4---2--2-|
--------2-----------------2-0---0-|----2---0-L-0-----2---------|--1-1---1-L----2-4---5--------|
------------------------------2---|--4-------------------------|------------------------------|
----------------------------------|----------------------------|------------------------------|
----------------------------------|----------------------------|------------------------------|

1.			       2.	
  S S S S S S S S Q    Q         S S S S S S S S Q    Q       E  S S S S S S S S S S S S S S  
--------0-L------------------||--------0-L-----------------|-----5-----6-----5-----5-----6---|
--2-1-2-----2-0--------------||--2-1-2-----2-0-------------|---------6-----6-----6-----6-----|
--------1-L-------2---------*||--------1-L-------2---------|-------7-----7-----7-----7-----7-|
----------------2-----------*||----------------2-----------|---------------------------------|
------------------4----------||------------------4---------|---------------------------------|
-----------------------------||----------------------------|---------------------------------|


  S S S S S S S S Q    Q       E  S S S S S S S S S S S S S S    S S S S S S S S Q    Q     
----5-----6-----6-5---------|-----5-----6-----5-----6-L-----6-|--5-----5-----6---5---------|
--6-----6-----6-------------|---------6-----6-----6-------6---|------6-----6---8-----------|
------7-----7---------------|-------7-----7-----7-------7-----|----7-----7-----------------|
----------------------------|---------------------------------|----------------------------|
----------------------------|---------------------------------|----------------------------|
----------------------------|---------------------------------|----------------------------|


  E  S  S S S  S S S  S S S  S S S  S    S S  S S S  S S S Q    E  E     E  S  S S S  S S S  S S S S  S S S  
-----8------9------8------8------9----|----8------9------9-8----------|-----8------9------8------9-L------9-|
----------9------9------9------9------|--9------9------9--------------|----------9------9------9--------9---|
-------10------------10------------10-|------10-----10----------------|-------10------------10-------10-----|
--------------11------------11--------|-------------------------------|--------------11---------------------|
--------------------------------------|-------------------------------|-------------------------------------|
--------------------------------------|-------------------------------|-------------------------------------|

6/4							4/4
   S  S  S  E   S  S  S  S  S  S  S Q    E   E  E  E     S S S S S S S S S S S S S S S S  
--10-------10--------10-12-------12-L----L--10--9--7--|----0-----2---0-2---0-------------|
--------10--------10----------12----------------------|----1-2---3-4-----4---1-2---------|
--11-11----11--11-------13-13----13-L----L------------|--------2-----------------2-0---0-|
------------------------------------------------------|------------------------------2---|
------------------------------------------------------|----------------------------------|
------------------------------------------------------|----------------------------------|


  S S S S S S S S Q    Q       S S S S S S S S S S S S S S S S    S E  S S S E  Q    Q     
----------------------------|----0-----2---0-2---0-------------|----------------0---------|
------0-3-L-3-1-0-----------|----1-2---3-4-----4---1-2---------|--0-0--0-L---0--0---------|
----2---0-L-0-----2---------|--------2-----------------2-0---0-|--1-1--1-L-3-1--1---------|
--4-------------------------|------------------------------2---|-----------5--------------|
----------------------------|----------------------------------|--------------------------|
----------------------------|----------------------------------|--------------------------|


  S S S S S S S S S S S S S S S S    S S S S S S S S Q    Q       S S S S Q    S E  S S E  S  
----0-----2---0-2---0-------------|----------------------------|------------------------0--0-|
----1-2---3-4-----4---1-2---------|------0-3-L-3-1-0-----------|--------0-L----2-3--4-L-2--2-|
--------2-----------------2-0---0-|----2---0-L-0-----2---------|--1-1----------2-4--5-L-2--2-|
------------------------------2---|--4---------------4---------|--2-2---2-L----2-4--7-L------|
----------------------------------|----------------------------|-----------------------------|
----------------------------------|----------------------------|-----------------------------|


  S S S S S S S S H           S S S S Q    S E  S S E  S    S S S S S S S S E  E  Q      
--------0-L----------------|------------------------0--0-|--------0-L-------------5----||
--2-1-2-----2-0------------|--------0-L----2-3--4-L-2--2-|--2-1-2-----2-0---------5----||
--------1-L-------2--------|--1-1---1-L----2-4--5-L-2--2-|--------1-L-------2-----6----||
----------------2----------|--2-2---2-L----2-4--7-L------|----------------2-------7----||
------------------4--------|-----------------------------|-----------------------------||
---------------------------|-----------------------------|-----------------------------||

2:
     S E.  S S S S Q    E  E     S E  S S S E  E  E  E  E       E  E  E  E  E  E  E  E   
E||---------------------------|----------------------------||---------------------------|
B||---------------------------|----------------------------||---------------------------|
G||---------------------------|----------------------------||*-----0-----0-----0--------|
D||--5-----3-----2------------|-------2---3-4--5-----5-----||*-----2-----2-----2--0--2--|
A||--7-----5-----3------3--4--|--5-6-----------------------||---3-----------3-----------|
E||---------------------------|----------------------3-----||---------3-----------------|


  E  E  E  E  E  E  E  E     E  E  E  E  E  E  E  E     E  E  E  E  E  E  E  E     E  E  E  E  E  E  E  E   
--------------------------|--------------------------|--------------------------|--------------------------|
-----1-----1--------------|--------------------------|--------------------------|--------------------------|
-----2-----2--------------|-----0-----0-----0--------|-----------------------0--|-----0-----0-----0--------|
--3-----------3--2--1--0--|-----2-----2-----2--0--2--|--------------0--2--3-----|-----2-----2-----2--0--2--|
--------3-----------------|--3-----------3-----------|-----0--1--2--------------|--3-----------3-----------|
--------------------------|--------3-----------------|--3-----------------------|--------3-----------------|

							     1.	
  E  E  E  E  E  E  E  E     S S S S S S S S S S S S S E  S    E  E  E  E  E  E  E  E     
--------------------------|---------------------------------|---------------------------||
-----1-----1--------------|---------------------------------|---------------------------||
-----2-----2--------------|--0-0-----------0-3-2---1---0--0-|-----2--------------------*||
--3-----------3--2--3--4--|--------3-L---0------------------|-----4-----3--------------*||
--------3-----------------|------------2--------------------|--5--------5--3-----0--2---||
--------------------------|---------------------------------|--------3--------3---------||

2.
  E  E  E  E  E  E  E  E     E  E  E  E  E  E  E  E     E  E  E  E  E  E  E  E     E  E  E  E  E  E  E  E   
--------------------------|--------------------------|--------------------------|--------------------------|
--------------------------|-----1-----2-----1-----2--|-----1-----2--------------|-----1-----2-----1-----2--|
-----2--------5--4--2--0--|-----1-----1-----1-----1--|-----1-----1-----0--1--0--|-----1-----1-----1-----1--|
-----4-----3--------------|--3-----------3-----------|--3-----------3-----------|--3-----------3-----------|
--5--------5--3--2--0-----|--------4-----------4-----|--------4-----------------|--------4-----------4-----|
--------3--------------3--|--1-----------------------|--------------------------|--------------------------|


  E  E  E  E  E  E  E  E     E  E  E  E  E  E  E  E     E  E  E  E  E  E  E  E     E  E  E  E  E  E  E  E   
--------------------------|-----------0-----------0--|-----------0--------------|-----------0-----------0--|
-----1-----2--------------|-----4-----0-----4-----0--|-----4-----0--------------|-----4-----0-----4-----0--|
-----1-----1-----------3--|-----4-----------4--------|-----4--------------------|-----4-----------4--------|
--3-----------3--5--6-----|--------2-----6-----------|--6-----------6--8--9--8--|--6-----------6-----------|
--------4--------------1--|--2-----------------7-----|--------7-----------------|--------7-----------7-----|
--------------1--3--4-----|--------------------------|--------------4--6--7--6--|--4-----------------------|


  E.  S E  E  E.  S E  E  E  E  E  E     E  E  E  E  E  E  E  E     E  E  E  E  E  E  E  E   
--------------------------------------|--------------------------|--------------------------|
--------------------------------------|--5--5--5--5--5--5--5--5--|--6--6--4--4--3--3--4--4--|
-----------------------------------1--|--5--5--3--3--7--7--5--5--|--5--5--5--5--5--5--5--5--|
-----------------------------2--4-----|--5--5--5--5--5--5--5--5--|--7--7--7--7--7--7--7--7--|
--5---L-4--3--2---1-L-----------------|--------------------------|--------------------------|
-----------------------0--L-----------|--------------------------|--------------------------|


  E  E  E  E  E  E  E  E     E  E  E  E  E  E  E  E     E  E  E  E  E  E  E  E     E  E  E  E  E  E  E  E   
--------------------------|--3--1--0-----------------|--------------------------|--------------------------|
--5--5--5--5--5--5--5--5--|-----------3--1--0--------|--------------------------|-----1-----1--------------|
--5--5--3--3--7--7--5--5--|--0-----------------2-----|-----0-----0-----0--------|-----2-----2--------------|
--5--5--5--5--5--5--5--5--|-----3--2--0-----------0--|-----2-----2-----2--0--2--|--3-----------3--2--3--4--|
--------------------------|--------------3--2--0-----|--3-----------3-----------|--------3-----------------|
--------------------------|-----------------------3--|--------3-----------------|--------------------------|


  S S S S S S S S S S S S S E  S    E  E  E  E  E  E  E  E     S E  S Q    S E  S S E  S  
---------------------------------|--------------------------|----------------------------|
---------------------------------|--------------------------|----------------------------|
--0-0-----------0-3-2---1---0--0-|-----2--------5--4--2--0--|--0-0--0-L----3-2--1-L-0--0-|
--------3-L---0------------------|-----4-----3--------------|----------------------------|
------------2--------------------|--5--------5--3--2--0-----|----------------------------|
---------------------------------|--------3--------------3--|----------------------------|


  E  E  E  E  E  E  Q      
-------------------------||
-------------------------||
-----5-----4--5----------||
-----4-----3-------------||
--5--------5--------3----||
--------3----------------||



Duration Legend
---------------
W - whole
H - half
Q - quarter
E - 8th
S - 16th
T - 32nd
X - 64th
. - note dotted
|-n-|  - n-tuplets


Tablature Legend
----------------
L - tied note
x - dead note
g - grace note
h - hammer on
p - pull off
^ - brush up
v - brush down
Login or Register to remove this ad.