Ads

Slide Show Part 2 (Final Fantasy VIII) Guitar Tab

Submitted: Dec 27, 2016 by JordanVS

5
Average: 5 (2 votes)
Download | Listen
Game: Final Fantasy VIII
Composer(s): Nobuo Uematsu
Style: Arrangement, Fingerstyle
Series: Final Fantasy

AutoScroll: Slow | Medium | Fast
Slide Show Part 2                                               
Final Fantasy VIII
Nobuo Uematsu
JordanVS

There's two versions of this.
Both of them start out pretty much the same with their last half being different.
The first version is the easier one.

*Capo on the 3rd fret
-Tempo : 108 ~ 4/4 

The easy one:

      S S S S S S S S S S S S S S S S    S S S S S S S S E  E  E  E     S S S S S S S S S S S S S S S S  
E||-----0-----2---0-2---0-------------|------------------------------|----0-----2---0-2---0-------------|
B||-----1-2---3-4-----4---1-2---------|------0-3-L-3-1-0-------------|----1-2---3-4-----4---1-2---------|
G||*--------2-----------------2-0---0-|----2---0-L-0-----2-----------|--------2-----------------2-0---0-|
D||*------------------------------2---|--4---------------0-----------|------------------------------2---|
A||---0---------------0-------2---4---|--5-------0----------4--3--2--|--0---------------0-------2---4---|
E||-----------0-----------------------|------------------------------|----------0-----------------------|


  S S S S S S E  E  E  E  E     S S S S S S S S S S S S S S S S    S S S S S S S S E  E  E  E   
-----------------0-----------|----0-----2---0-2---0-------------|------------------------------|
--0-0---0-L---0--0-----------|----1-2---3-4-----4---1-2---------|------0-3-L-3-1-0-------------|
--1-1---1-L-3----------------|--------2-----------------2-0---0-|----2---0-L-0-----2-----------|
------------5-6--------0--2--|------------------------------2---|--4---------------0-----0--1--|
-----------------2--4--------|--0---------------0-------2---4---|--5-------0----------4--------|
--0---2---3---4--------------|----------0-----------------------|------------------------------|

				  1.				   2.
  S S S S S S S S S S S S S E  S    S S S S S S S S E  E  E  E       S S S S S S S S E  E  E  E   
----------------------------0--0-|--------0-L--------------------||--------0-L-------------------|
--------0-L-------2-3---4---2--2-|--2-1-2-----2-0----------------||--2-1-2-----2-0---------------|
--1-1---1-L-------0-4---5--------|--------1-L-------2-----------*||--------1-L-------2-----------|
--2-2---0-------2---4---3---2--2-|----------------2-------------*||----------------2-------------|
--------------2------------------|--2---------------0------------||--2---------------0-----------|
------------4--------------------|----------0----------0--2--4---||----------0----------4--2--0--|


  E  S S S S S S S S S S S S S S    S S S S S S S S E  E  E  E     E  S S S S S S S S S S S S S S  
---------------------------------|------------------------------|---------------------------------|
---------------------------------|------------------------------|---------------------------------|
-----2-----3-----2-----2-----3---|----2-----3-----3-2-----------|-----2-----3-----2-----3-L-----3-|
---------3-----3-----3-----3-----|--3-----3-----3------2--3--2--|---------3-----3-----3-------3---|
--5----5-----5-----5-----5-----5-|------5-----5-----5-----------|--5----5-----5-----5-------5-----|
---------------------------------|------------------------------|---------------------------------|


  S S S S S S S S E  E  E  E     E  S S S S S S S S S S S S S S    S S S S S S S S E  E  E  E   
------------------------------|---------------------------------|------------------------------|
------------------------------|-----1-----2-----1-----1-----2---|----1-----2-----2-1-----------|
--2-----2-----3-0-2-----------|--1------1-----1-----1-----1-----|--1-----1-----1------0--1--0--|
------3-----3-----0--2--3--5--|-------3-----------3-----------3-|------3-----3-----3-----------|
----5-----5-------------------|-------------4-----------4-------|------------------------------|
------------------------------|---------------------------------|------------------------------|

							         *Da Capo
  E  S S S S S S S S S S S S S S    S S S S S S S S S S S E  S S S    H        H          
---------------------------------|------------------0-----0--------|--------------------||
-----1-----2-----1-----2-L-----2-|--3-----3-------3-----0----3-2-0-|--------------------||
---------1-----1-----1-------1---|------2-------2---1-1---1--------|--2-----------------||
--3----3-----------3-------3-----|--4-4---4---4--------------------|--2-----------------||
-------------4-------------------|--5-----4-L---3---2-----1--------|--0-----------------||
---------------------------------|---------------------------0-2-4-|--------------------||


The hard one:

      S S S S S S S S S S S S S S S S    S S S S S S S S E  E  E  E     S S S S S S S S S S S S S S S S  
E||-----0-----2---0-2---0-------------|------------------------------|----0-----2---0-2---0-------------|
B||-----1-2---3-4-----4---1-2---------|------0-3-L-3-1-0-------------|----1-2---3-4-----4---1-2---------|
G||*--------2-----------------2-0---0-|----2---0-L-0-----2-----------|--------2-----------------2-0---0-|
D||*------------------------------2---|--4---------------0-----------|------------------------------2---|
A||---0---------------0-------2---4---|--5-------0----------4--3--2--|--0---------------0-------2---4---|
E||-----------0-----------------------|------------------------------|----------0-----------------------|


  S S S S S S E  E  E  E  E     S S S S S S S S S S S S S S S S    S S S S S S S S E  E  E  E   
-----------------0-----------|----0-----2---0-2---0-------------|------------------------------|
--0-0---0-L---0--0-----------|----1-2---3-4-----4---1-2---------|------0-3-L-3-1-0-------------|
--1-1---1-L-3----------------|--------2-----------------2-0---0-|----2---0-L-0-----2-----------|
------------5-6--------0--2--|------------------------------2---|--4---------------0-----0--1--|
-----------------2--4--------|--0---------------0-------2---4---|--5-------0----------4--------|
--0---2---3---4--------------|----------0-----------------------|------------------------------|

				  1.				   2.
  S S S S S S S S S S S S S E  S    S S S S S S S S E  E  E  E       S S S S S S S S E  E  E  E   
----------------------------0--0-|--------0-L--------------------||--------0-L-------------------|
--------0-L-------2-3---4---2--2-|--2-1-2-----2-0----------------||--2-1-2-----2-0---------------|
--1-1---1-L-------2-4---5--------|--------1-L-------2-----------*||--------1-L-------2-----------|
--2-2---0-------2-5-4---3---2--2-|----------------2-------------*||----------------2-------------|
--------------2------------------|--2---------------0------------||--2---------------0-----------|
------------4--------------------|----------0----------0--2--4---||----------0----------4--2--0--|


  E  S S S S S S S S S S S S S S    S S S S S S S S E  E  E  E     E  S S S S S S S S S S S S S S  
-----5-----6-----5-----5-----6---|----5-----6-----6-5-----------|-----5-----6-----5-----6-L-----6-|
---------6-----6-----6-----6-----|--6-----6-----6---------------|---------6-----6-----6-------6---|
-------7-----7-----7-----7-----7-|------7-----7-----------------|-------7-----7-----7-------7-----|
---------------------------------|------------------------------|---------------------------------|
--5--------------5---------------|--5---------------5--7--8--7--|--5--------------5---------------|
---------6---------------6-------|----------6-------------------|---------6---------------6-------|


  S S S S S S S S E  E  E  E     E  S  S S S  S S S  S S S  S S S  S    S S  S S S  S S S E   E   E   E   
--5-----5-----6---5-----------|-----8------9------8------8------9----|----8------9------9-8--------------|
------6-----6---8-------------|----------9------9------9------9------|--9------9------9------------------|
----7-----7-------------------|-------10------------10------------10-|------10-----10--------------------|
---------------------------5--|--6-----------11------------11--------|-----------------------------------|
--5---------------5--7--8-----|-------------------8------------------|--8-----------------8--10--11--10--|
----------6-------------------|----------9------------------9--------|-----------9-----------------------|

										 *Da Capo
  E  S  S S S  S S S  S S S S  S S S     S  S  S  S S  S  S  S  S  S  S  E  S S S    H        H          
-----8------9------8------9-L------9-|--10-------10---------10-12-------12--------|--------------------||
----------9------9------9--------9---|--------10---------10----------12-----------|--------------------||
-------10------------10-------10-----|--11-11----11---11-------13-13----13--7-6-4-|--2-----------------||
--------------11---------------------|--12-------11-L----10-------------------4-6-|--2-----------------||
--8----------------8-----------------|-------------------------14-------13--7-----|--0-----------------||
----------9-----------------9--------|--------------------------------------------|--------------------||




Duration Legend
---------------
W - whole
H - half
Q - quarter
E - 8th
S - 16th
T - 32nd
X - 64th
. - note dotted
|-n-|  - n-tuplets


Tablature Legend
----------------
L - tied note
x - dead note
g - grace note
^ - brush up
v - brush down
 
Login or Register to remove this ad.

1 comment on Slide Show Part 2

This is awesome :D

5

This is awesome :D