Ads

SeeD (Final Fantasy VIII) Guitar Tab

Submitted: Jan 24, 2015 by Exdeath

5
Average: 5 (1 vote)
Download | Listen
Game: Final Fantasy VIII
Composer(s): Nobuo Uematsu
Style: Arrangement, Fingerstyle
Series: Final Fantasy

AutoScroll: Slow | Medium | Fast
  SeeD                                       


                         E  S S E  E  S S E  S S E     E  S S E  E  H         
E||-------------------|-----------------------------|------------------------|
B||-------------------|-----------------------------|------------------------|
G||-------------------|-----------------------------|------------------------|
D||-------------------|--x--x-x-x--x--x-x-x--x-x-x--|--x--x-x-x--x-----------|
A||-------------------|--x--x-x-x--x--x-x-x--x-x-x--|--x--x-x-x--x-----------|
E||-------------------|--x--x-x-x--x--x-x-x--x-x-x--|--x--x-x-x--x-----------|


  W                   Q    Q    H           W                 
-------------------|---------------------|-------------------|
-------------------|--0----1-------------|--L----------------|
-------------------|------------2--------|--L----------------|
-------------------|--3------------------|--L----------------|
-------------------|---------------------|-------------------|
-------------------|---------------------|-------------------|


  H.           Q       W                   Q    Q    H         
--------------------|-------------------|------------0--------|
--L-----------------|-------------------|--0----1-------------|
--L-----------------|-------------------|---------------------|
--L-----------------|-------------------|--3------------------|
--------------------|-------------------|---------------------|
--------------------|-------------------|---------------------|


  W                   H.           Q       W                 
--L----------------|--L-----------------|-------------------|
--L----------------|--L-----------------|-------------------|
-------------------|--------------------|-------------------|
--L----------------|--L-----------------|-------------------|
-------------------|--------------------|-------------------|
-------------------|--------------------|-------------------|


  Q    Q    H           W                   H.           Q     
---------------------|-------------------|--------------------|
--0----1-------------|--L----------------|--L-----------------|
------------2--------|--L----------------|--L-----------------|
--3------------------|--L----------------|--L-----------------|
---------------------|-------------------|--------------------|
---------------------|-------------------|--------------------|


  W                   Q    Q    H           W                 
-------------------|------------3--------|--L----------------|
-------------------|---------------------|-------------------|
-------------------|--2----3-------------|--L----------------|
-------------------|--1------------------|--L----------------|
-------------------|---------------------|-------------------|
-------------------|---------------------|-------------------|


  H.           Q       W                   W                 
--L-----------------|-------------------|-------------------|
--------------------|-------------------|-------------------|
--L-----------------|-------------------|-------------------|
--L-----------------|-------------------|-------------------|
--------------------|-------------------|-------------------|
--------------------|-------------------|-------------------|


  E  S S E  E  S S E  S S E     E  S S E  E  H           H        Q    Q     
-----------------------------|------------------------|---------------------|
-----------------------------|------------------------|---------------------|
-----------------------------|------------------------|--2--------1----2----|
--x--x-x-x--x--x-x-x--x-x-x--|--x--x-x-x--x-----------|--4--------2----4----|
--x--x-x-x--x--x-x-x--x-x-x--|--x--x-x-x--x-----------|--5-------------L----|
--x--x-x-x--x--x-x-x--x-x-x--|--x--x-x-x--x-----------|---------------------|


  H        Q    Q       W                   W                 
---------------------|-------------------|-------------------|
---------------------|-------------------|-------------------|
--4--------1----2----|--2----------------|--L----------------|
--6--------2----4----|--4----------------|--L----------------|
--5--------5----5----|--5----------------|--L----------------|
---------------------|-------------------|-------------------|


  W                   Q    Q    Q    Q       Q    Q    Q    Q     
-------------------|----------------------|----------------------|
-------------------|--2---------3----2----|-------2--------------|
-------------------|--2----4----4----2----|--4----2----1----2----|
-------------------|-------6--------------|--6---------2----4----|
-------------------|----------------------|----------------------|
-------------------|--2--------------L----|--2----L----2----2----|


  W                   W                   W                 
-------------------|-------------------|-------------------|
-------------------|-------------------|-------------------|
--2----------------|--L----------------|-------------------|
--4----------------|--L----------------|-------------------|
-------------------|-------------------|-------------------|
--2----------------|--L----------------|-------------------|


  H        Q    Q       H        Q    Q       W                 
--5--------4----5----|--7--------4----5----|--5----------------|
--7--------5----7----|--9--------5----7----|--7----------------|
---------------------|---------------------|-------------------|
--0-------------L----|--0--------0----0----|--0----------------|
---------------------|---------------------|-------------------|
---------------------|---------------------|-------------------|


  W                   W                    Q     Q     Q     Q     
--L----------------|-------------------|---9----------10-----9----|
--L----------------|-------------------|--10----12----12----10----|
-------------------|-------------------|--------13----------------|
--L----------------|-------------------|--------------------------|
-------------------|-------------------|---9-----------------L----|
-------------------|-------------------|--------------------------|


   Q     Q    Q     Q        W                   W                 
---------9---------------|--------------------|-------------------|
--12----10----9----10----|--10----------------|--L----------------|
--13----------9----11----|--11----------------|--L----------------|
-------------------------|--------------------|-------------------|
---9-----L----9-----9----|---9----------------|--L----------------|
-------------------------|--------------------|-------------------|


  W                    W                    W                 
-------------------|--11----------------|--------------------|
-------------------|--------------------|--------------------|
-------------------|--------------------|--14----------------|
-------------------|--------------------|--------------------|
-------------------|--------------------|--------------------|
-------------------|--11----------------|---L----------------|


   Q     H.              W                   W                 
----------------------|-------------------|-------------------|
--12----11------------|--L----------------|-------------------|
----------------------|-------------------|-------------------|
----------------------|-------------------|-------------------|
----------------------|-------------------|-------------------|
--11----11------------|--L----------------|-------------------|


  W                   W                   W                 
-------------------|-------------------|-------------------|
-------------------|--7----------------|-------------------|
-------------------|-------------------|--7----------------|
-------------------|-------------------|-------------------|
-------------------|--6----------------|--L----------------|
-------------------|-------------------|-------------------|


  Q    H.              W                   E  S S E  E  S S E  S S E   
--------------------|-------------------|-----------------------------|
--6-----------------|-------------------|-----------------------------|
-------8------------|--L----------------|-----------------------------|
--------------------|-------------------|--x--x-x-x--x--x-x-x--x-x-x--|
--6----6------------|--L----------------|--x--x-x-x--x--x-x-x--x-x-x--|
--------------------|-------------------|--x--x-x-x--x--x-x-x--x-x-x--|


  E  S S E  E  H           W                   Q    Q    H         
------------------------|-------------------|---------------------|
------------------------|-------------------|--0----1-------------|
------------------------|-------------------|------------2--------|
--x--x-x-x--x-----------|-------------------|--3------------------|
--x--x-x-x--x-----------|-------------------|---------------------|
--x--x-x-x--x-----------|-------------------|---------------------|


  W                   H.           Q       W                 
-------------------|--------------------|-------------------|
--L----------------|--L-----------------|-------------------|
--L----------------|--L-----------------|-------------------|
--L----------------|--L-----------------|-------------------|
-------------------|--------------------|-------------------|
-------------------|--------------------|-------------------|


  Q    Q    H           W                   H.           Q     
------------0--------|--L----------------|--L-----------------|
--0----1-------------|--L----------------|--L-----------------|
---------------------|-------------------|--------------------|
--3------------------|--L----------------|--L-----------------|
---------------------|-------------------|--------------------|
---------------------|-------------------|--------------------|


  W                   Q    Q    H           W                 
-------------------|---------------------|-------------------|
-------------------|--0----1-------------|--L----------------|
-------------------|------------2--------|--L----------------|
-------------------|--3------------------|--L----------------|
-------------------|---------------------|-------------------|
-------------------|---------------------|-------------------|


  H.           Q       W                   Q    Q    H         
--------------------|-------------------|------------3--------|
--L-----------------|-------------------|---------------------|
--L-----------------|-------------------|--2----3-------------|
--L-----------------|-------------------|--1------------------|
--------------------|-------------------|---------------------|
--------------------|-------------------|---------------------|


  W                   H.           Q       W                 
--L----------------|--L-----------------|-------------------|
-------------------|--------------------|-------------------|
--L----------------|--L-----------------|-------------------|
--L----------------|--L-----------------|-------------------|
-------------------|--------------------|-------------------|
-------------------|--------------------|-------------------|


  W                   E  S S E  E  S S E  S S E     E  S S E  E  H         
-------------------|-----------------------------|------------------------|
-------------------|-----------------------------|------------------------|
-------------------|-----------------------------|------------------------|
-------------------|--x--x-x-x--x--x-x-x--x-x-x--|--x--x-x-x--x-----------|
-------------------|--x--x-x-x--x--x-x-x--x-x-x--|--x--x-x-x--x-----------|
-------------------|--x--x-x-x--x--x-x-x--x-x-x--|--x--x-x-x--x-----------|


-------------------||
-------------------||
-------------------||
-------------------||
-------------------||
-------------------||
Login or Register to remove this ad.