Ads

My Mind (Final Fantasy VIII) Guitar Tab

Submitted: Apr 07, 2010 by Lost Melodies

5
Average: 5 (7 votes)
Download | Listen
Game: Final Fantasy VIII
Composer(s): Nobuo Uematsu
Style: Arrangement, Fingerstyle
Series: Final Fantasy

AutoScroll: Slow | Medium | Fast
 Oo=-*=-*=-*=-*=-*=-*=oO                   ,[email protected]:       
 ||      My Mind      ||                ,[email protected],
 ||    Arranjed by    ||                @MMMW0W##[email protected]
 ||   Lost Mellodies  ||            [email protected]#[email protected]@@@MMM
 Oo=-*=-*=-*=-*=-*=-*=oO           :9,[email protected] bMAo#;[email protected]@@@@@MM.
                                   c  @[email protected]@[email protected]@@@[email protected]
                                      [email protected]@[email protected]#MMMM.
                                 cE#[email protected][email protected]    X#MMM#@MM9     QM,
                             [email protected]@n  itEMM7           iMZ
                          :[email protected]:EMMMc  ,MM,             [email protected]
       .............,[email protected]@@@@MQYi   [email protected]@M;  1E                 MM
    .,,:,...:;[email protected]@@@@@@@#@@ME i,[email protected]@MMMM#.    ..:[email protected]
        ..i:,.  .cIW$WWB$BW#[email protected]#    ;[email protected]#$zUIEE0#@$$B$#@MMMMb
     .,::     .72tbB000Q9EoC7 ...:[email protected]$0ni  [email protected]#@[email protected];
   .:.     izoi,:9b0E0WWvv                     #[email protected]#@@@@@@@@@@[email protected]@@@[email protected]
  ..    .7Si  ,v9YI0QQ#Y                     .bM#@@@@@@@@@@@@@@@@MMQ7
       ic,  :2:i.StcbQ$C  vc;;z69Zz;:,;t6W#[email protected]@@@@@@@@@@@@@@@@@MA.0
      ..   YX.;.77i1E0b0#@[email protected]@@@@@@[email protected]@[email protected]#@@@@@@@@@@@@@@MM2MM
         .i;.t.,;QE98E8Wt.E0i$$BWQW$#@I. [email protected]@###@@@@@@@@@@@@@@MMAbMM
        ..i.v.;1E0EbZSE6no7E6vUQWWWQQW#@@[email protected]@#[email protected]@##@@@@@@@[email protected] 8MI
         .. i.i8EAAIAIQnS$E2Z0YcW$WWWQW##bIt:cn#@[email protected]@######@@MMi..i
         .    .0E9Ztc9bE1SQWt71:cA71EQQQUc,,[email protected]@$#@####@@@MMI   '
               ;62oAA99UAb00WbIS;CYvoUzSAbWZtY;:CE#EW###@@@MMMS
                ,IzoSnSU9ZZZZE0Etvcz8Z88ZAbEZ8$###$BQW$#@MMM#.
 _____ _        ;UnzI_AAI_____0WB#[email protected]@W7 __     __ _  _  _ 
|  ___(_)_ __   __ _| | |  ___|_ _ _ __ | |_ __ _ ___ _   _ \ \   / /| || || |
| |_  | | '_ \ / _` | | | |_ / _` | '_ \| __/ _` / __| | | | \ \ / / | || || | 
|  _| | | | | | (_| | | |  _| (_| | | | | || (_| \__ \ |_| |  \ ' /  | || || | 
|_|   |_|_| |_|\__,_|_| |_|  \__,_|_| |_|\__\__,_|___/\__, |©  \_/   |_||_||_|
======================================================|___/====================
                 .:           ..,........     .
                 ,v.     .     .iii:,,::i:     .    
                 i;i     .i     i,:iiii::ivi   .    
                 ,:i      .,    :v.:i:iiiiiYc.
                 .;i.      :.    ,c,:;iiii..;7i
                  i;i.      .     .;:.iiiiv. .v7:
                  ,;;i              i:,ii::i:  .;c,
                   ;iv.               .,;:i.:Y:   vc.
                   .i:,                 .;;i  vc.  .:;i.
                    i;:                  .;cv  .c;    .ii.
                     :vi                   ..    :Y:     ....
                     .v;.                          vc.      ..
                      .;i                           .;c.
                       .v.                            .i;.
                        .;.                             .ii.
                         .;                                .,.
                    
                                    My Mind                                     
                             ~ Final Fantasy VIII ~


Arranjed by Lost Mellodies                           Music by Nobuo Uematsu


(Capo 2)

                   ^                       ^                         
     E  E  Q       H        E  E  E  E     S  S  Q.     E  E  E  E   
E||--1--0--3----|-----------------------|---------------------------|
B||-------------|--1-----------------1--|--0h-1p-0------0--1--3--1--|
G||-------------|--2-----------0--2-----|--0-----L------------------|
D||-------------|--3--------3-----------|--3-----L------------------|
A||-------------|-----------------------|---------------------------|
E||-------------|-----------------------|---------------------------|


        ^                   ^                       ^                       
  E  E  Q    E  E  E  E     Q.     E  E  E  Q       Q.     S S E  E  E  E   
--0--3--3----------------|---------5--1--0--3----|-------------------------|
--1-----1----6--5--8--5--|--3---------1----------|--1----------------------|
--0-----0----5-----L-----|--3---------0----------|--2--------0-2--0--0-----|
--3-----2----5-----L-----|--5---------3----------|--3------3------------3--|
--------x----------------|--5--------------------|-------------------------|
--------3----------------|-----------------------|-------------------------|


  ^                                                ^            ^     
  H        E  E  E  E     E  E  E  E  Q.     E     H.           Q     
--------------------0--|--------------1---------|---------------5----|
--3--------0--1--3-----|--3--------1---------1--|--1------------5----|
--0--------------------|------------------------|--0------------5----|
--0--------------------|--------3---------------|--2------------5----|
--x--------------------|-----3------------------|--3-----------------|
--3--------------------|------------------------|--------------------|


  ^                       ^                                           
  H        E.  S E  E     Q.     E  H           H        E.  S E  E   
--3------------0-L--3--|--7------5--5--------|--L--------5---7-L--8--|
--5--------1-----------|--6------------------|--L--------------------|
--5--------------------|--5------------------|--L--------------------|
--5--------------------|--7------------------|--L--------------------|
-----------------------|---------------------|-----------------------|
-----------------------|---------------------|-----------------------|


  ^                        ^                    ^                      
  H        E  Q.        E  H        E  E  E     Q.     S  S  H         
--5------------------|--------------0--0--1--|--3------1p-0h-1--------|
--5--------8--8------|--L--5-----------------|--1---------------------|
--7------------------|-----5-----------------|--0---------------------|
--5------------------|-----5-----------------|--2---------------------|
---------------------|-----------------------|--x---------------------|
---------------------|-----------------------|--3---------------------|


  ^                       ^                        ^                   
  H        E.  S E  E     H        E  Q.        E  Q.     E.  S E  E   
-----------1---3-L--5--|--5------------------|----------------0-L--3--|
--3--------------------|--5--------8--8------|--L---------1-----------|
--4--------------------|--7------------------|-----3------------------|
--5--------------------|--5------------------|-----2------------------|
-----------------------|---------------------|-----3------------------|
-----------------------|---------------------|------------------------|


  ^                                              ^                   
  H        E  Q.        Q.     E  E.  S E  E     Q.     Q.     Q     
--7--------5--5------|--L------1--5---7-L--8--|--5------3------7----|
--6------------------|------------------------|--3------------------|
--5------------------|------------------------|--4------------------|
--7------------------|------------------------|--5------------------|
---------------------|------------------------|---------------------|
---------------------|------------------------|---------------------|


  ^                    ^                                              
  H.           Q       E  E  Q    Q.     S S    Q.     Q    E  E  E   
--5------------3----|--3--1--8----1----------|-----------------------|
--2-----------------|--3-----------------1-3-|--5------5----3--1--0--|
--2-----------------|--2---------------------|--4--------------------|
--5-----------------|--3---------------------|--5--------------------|
--------------------|------------------------|-----------------------|
--------------------|------------------------|-----------------------|


  ^                   ^                   
  W                   W                   
-------------------|--0-----------------||
--3----------------|--1-----------------||
--2----------------|--0----------------*||
--3----------------|--2----------------*||
-------------------|--3-----------------||
-------------------|--------------------||




Duration Legend
---------------
W - whole
H - half
Q - quarter
E - 8th
S - 16th
T - 32nd
X - 64th
. - note dotted
|-n-|  - n-tuplets


Tablature Legend
----------------
L - tied note
x - dead note

Login or Register to remove this ad.

1 comment on My Mind

It sounds nice, sir! Very

5

It sounds nice, sir! Very calm and clear sound. It's good to play! I liked the "strumable" parts!

Thank you very much for sharing it with us!