Ads

The Man With the Machine Gun (Final Fantasy VIII) Guitar Tab

Submitted: Feb 28, 2011 by ThulsaDoom

4.764705
Average: 4.8 (17 votes)
Download | Listen
Game: Final Fantasy VIII
Composer(s): Nobuo Uematsu
Style: Arrangement, Fingerstyle
Series: Final Fantasy

AutoScroll: Slow | Medium | Fast
The Man With The Machine Gun


arranged for solo guitar by ThulsaDoom

Composer: Nobuo Uematsu
Game: Final Fantasy VIII
Copyright: 1999 Square Enix Co., Ltd.

Tuning : Drop D (DADGBE)
Capo: 5

Tab by ThulsaDoom

Date: 02/27/11    
      

     E  E  E  S S S S E  Q       E  E  E  S S S S E  Q     
E||--0--5--3----0---0-5--3----|--0--5--3----0---0-5--3----|
B||-----------3---------------|-----------3---------------|
G||---------------------------|---------------------------|
D||---------------------------|---------------------------|
A||--0-----0------0------0----|--0-----0------0------0----|
D||---------------------------|---------------------------|


  E  E  E  S S S E  S E  E     E  E  E  S S S E  S E  E   
--------0--------0----------|--------0--------0----3--2--|
-----1-------1--------0--3--|-----1-------1--------------|
--2--------2--------2-------|--2--------2--------2-------|
----------------------------|----------------------------|
--0-----0------0------0-----|--0-----0------0------0-----|
----------------------------|----------------------------|


  E  E  E  S S S E  S E  E     E  E  E  S S S E  S E  E   
--------0--------0----------|--------0--------0----3--2--|
-----1-------1--------0--3--|-----1-------1--------------|
--2--------2--------2-------|--2--------2--------2-------|
----------------------------|----------------------------|
--0-----0------0------0-----|--0-----0------0------0-----|
----------------------------|----------------------------|


  E  E  Q    E  E  E  S  S    Q    E  E  E  E  E  S  S  
--3-------------3-----2p-0-|--2-------3-----2----------|
--5-----5-------5----------|--3-------3-----------5p-3-|
-----5---------------------|---------------------------|
---------------------------|---------------------------|
--0-----0----0-----0-------|--0----0-----0-----0-------|
---------------------------|---------------------------|


  Q    Q    E  E  E  S S    Q    E  E  E  E  E  S  S  
--0--------------------0-|---------------------------|
--1------------------1---|--3-------1-----0-----1p-0-|
---------------2---------|--2------------------------|
-------------------------|---------------------------|
--0----0----0-----0------|--0----0-----0-----0-------|
-------------------------|---------------------------|


  E  E  E  S S S E  S E  E     E  E  E  S S S E  S E  E   
--------0--------0----------|--------0--------0----3--2--|
-----1-------1--------0--3--|-----1-------1--------------|
--2--------2--------2-------|--2--------2--------2-------|
----------------------------|----------------------------|
--0-----0------0------0-----|--0-----0------0------0-----|
----------------------------|----------------------------|


  E  E  E  S S S E  S E  E     E  E  E  S S S E  S E  E   
--------0--------0----------|--------0--------0----3--2--|
-----1-------1--------0--3--|-----1-------1--------------|
--2--------2--------2-------|--2--------2--------2-------|
----------------------------|----------------------------|
--0-----0------0------0-----|--0-----0------0------0-----|
----------------------------|----------------------------|


  E  E  Q    E  E  E  S  S    Q    E  E  E  E  E  S  S  
--3-------------3-----2p-0-|--2-------3-----2----------|
--5-----5-------5----------|--3-------3-----------5p-3-|
-----5---------------------|---------------------------|
---------------------------|---------------------------|
--0-----0----0-----0-------|--0----0-----0-----0-------|
---------------------------|---------------------------|


  Q    Q    E  E  E  S S    Q    Q    E  E  E   E     E.  S E  E  E.  S E  E   
--0--------------------0-|-------------------------|--------------------------|
--1------------------1---|--3---------------1p--0--|------0----3--1--------0--|
---------------2---------|--2----------------------|--2---------------2-------|
-------------------------|---------------2---------|--3-----------------3-----|
--0----0----0-----0------|--0----0----0--0---------|--------------------------|
-------------------------|-------------------------|--3-----3-----3-----------|


  E.  S E  E  E  E  E  E     E  E  E  S S S E  S E  E   
--------------------------|--5-------------------------|
------3----6--5-----3--5--|--------1--------1-------0--|
--5--------------5--------|-----2-------2--------0-----|
--------3-----------3-----|-----------3--------3-------|
--------------------------|----------------------------|
--3-----------3-----------|--3-----3------3------3-----|


  E  E  E  S S S E  S E  E     E  E  Q    E  E  E  S  S  
----------------------3--2--|--3-------------3-----2p-0-|
--------1--------1----------|--5-----5-------5----------|
-----2-------2--------------|-----5---------------------|
--3--------3--------3-------|---------------------------|
----------------------------|--0-----0----0-----0-------|
--3-----3------3------3-----|---------------------------|


  Q    E  E  E  E  E  S  S    Q    Q    E  E  E  S S    Q    Q    E  E  E   E   
--2-------3-----2----------|--0--------------------0-|-------------------------|
--3-------3-----------5p-3-|--1------------------1---|--3---------------1p--0--|
---------------------------|---------------2---------|--2------------2---------|
---------------------------|-------------------------|-------------------------|
--0----0-----0-----0-------|--0----0----0-----0------|--0----0----0-----0------|
---------------------------|-------------------------|-------------------------|


  Q    E  E  Q    Q       Q    Q    Q    Q       E  E  E  S S S S E  E  E   
-----------------------|----------------------|--------0--------0----------|
--1----3---------------|----------------------|-----1-------1--------0--3--|
----------2------------|--2-------------------|--2--------2-------2--------|
-----------------------|--0-------------------|----------------------------|
-----------------------|----------------------|----------------------------|
--0----0-----0----0----|--2----2----2----2----|--3------------3------3-----|


  E  E  E  S S S E  S E  E      Q    Q    Q    Q        Q    Q    Q    E  S S  
----------------------------|---8-------------------|-------------8-------7-5-|
--------5--------5----8--7--|--10-------------------|--10-----------------8-7-|
-----5-------5--------------|-------------9---------|-------------------------|
--7--------7--------7-------|-----------------------|-------------------------|
----------------------------|---0----0----0----0----|---0----0----0----0------|
--5------------5------5-----|-----------------------|-------------------------|


  Q    Q    Q    Q       Q    Q    Q    Q       Q    Q    Q    Q     
--7-------------------|------------7---------|--6-------------------|
--8----8--------------|--8---------8---------|--8-------------------|
-------9----9---------|--9-------------------|------------7---------|
----------------------|----------------------|----------------------|
--7----7----7----7----|--7----7----7----7----|----------------------|
----------------------|----------------------|--5----5----5----5----|


  Q    Q    Q    E  S S    Q    Q    Q    Q       Q    Q    Q    E  S S  
------------6-------5-3-|--5-------------------|------------5-------2-4-|
--8-----------------6-5-|--6----6--------------|--6---------------------|
------------------------|-------7----7---------|------------------------|
------------------------|--3----3----3----3----|--3----3----3----3------|
------------------------|----------------------|------------------------|
--5----5----5----5------|----------------------|------------------------|


  E.  S E  E  E.  S E  E     E.  S E  E   E.  S E  E     Q    Q    Q    Q     
--5---7----5--4--------4--|--2---4----5--10---5----4--|--2-------------------|
------------------5-------|---------------------------|--3-------------------|
--6-----------------------|---------------------------|--4-------------------|
--4-----4-----2-----2-----|--0-----0------------------|----------------------|
--------------------------|---------------4-----4-----|--2----2----2----2----|
--------------------------|---------------------------|----------------------|


  Q    Q    Q    E  S  S    E.   S E  E  E.  S E  E   
--2-----------------5h-7-|--8---10----8--7--------7--|
--3----------------------|-------------------8-------|
--4----------------------|---------------------------|
------------0----2-------|--7------7-----5-----5-----|
--2----4-----------------|---------------------------|
-------------------------|---------------------------|


  E.  S E  E   E.  S E  E     Q    Q    Q    Q       Q    Q    Q    Q     
--5---7----8--13---8----7--|--5-------------------|----------------------|
---------------------------|--6-------------------|----------------------|
---------------------------|----------------------|----------------------|
---------------------------|--0----0----0----0----|--0----2----3----5----|
--8-----8------7-----7-----|----------------------|----------------------|
---------------------------|----------------------|----------------------|


  E  E  E  S S S S E  Q       E  E  E  S S S S E  Q     
--0--5--3----0---0-5--3----|--0--5--3----0---0-5--3----|
-----------3---------------|-----------3---------------|
---------------------------|---------------------------|
---------------------------|---------------------------|
--0-----0------0------0----|--0-----0------0------0----|
---------------------------|---------------------------|


  E  E  E  S S S E  S E  E     E  E  E  S S S E  S E  E   
--------0--------0----------|--------0--------0----3--2--|
-----1-------1--------0--3--|-----1-------1--------------|
--2--------2--------2-------|--2--------2--------2-------|
----------------------------|----------------------------|
--0-----0------0------0-----|--0-----0------0------0-----|
----------------------------|----------------------------|


  E  E  E  S S S E  S E  E     E  E  E  S S S E  S E  E   
--------0--------0----------|--------0--------0----3--2--|
-----1-------1--------0--3--|-----1-------1--------------|
--2--------2--------2-------|--2--------2--------2-------|
----------------------------|----------------------------|
--0-----0------0------0-----|--0-----0------0------0-----|
----------------------------|----------------------------|


  E  E  Q    E  E  E  S  S    Q    E  E  E  E  E  S  S  
--3-------------3-----2p-0-|--2-------3-----2----------|
--5-----5-------5----------|--3-------3-----------5p-3-|
-----5---------------------|---------------------------|
---------------------------|---------------------------|
--0-----0----0-----0-------|--0----0-----0-----0-------|
---------------------------|---------------------------|


  Q    Q    E  E  E  S S    Q    E  E  E  E  E  S  S  
--0--------------------0-|---------------------------|
--1------------------1---|--3-------1-----0-----1p-0-|
---------------2---------|--2------------------------|
-------------------------|---------------------------|
--0----0----0-----0------|--0----0-----0-----0-------|
-------------------------|---------------------------|


  E  E  E  S S S E  S E  E     E  E  E  S S S E  S E  E   
--------0--------0----------|--------0--------0----3--2--|
-----1-------1--------0--3--|-----1-------1--------------|
--2--------2--------2-------|--2--------2--------2-------|
----------------------------|----------------------------|
--0-----0------0------0-----|--0-----0------0------0-----|
----------------------------|----------------------------|


  E  E  E  S S S E  S E  E     E  E  E  S S S E  S E  E   
--------0--------0----------|--------0--------0----3--2--|
-----1-------1--------0--3--|-----1-------1--------------|
--2--------2--------2-------|--2--------2--------2-------|
----------------------------|----------------------------|
--0-----0------0------0-----|--0-----0------0------0-----|
----------------------------|----------------------------|


  E  E  Q    E  E  E  S  S    Q    E  E  E  E  E  S  S  
--3-------------3-----2p-0-|--2-------3-----2----------|
--5-----5-------5----------|--3-------3-----------5p-3-|
-----5---------------------|---------------------------|
---------------------------|---------------------------|
--0-----0----0-----0-------|--0----0-----0-----0-------|
---------------------------|---------------------------|


  Q    Q    E  E  E  S S    Q    Q    E  E  E   E     E.  S E  E  E.  S E  E   
--0--------------------0-|-------------------------|--------------------------|
--1------------------1---|--3---------------1p--0--|------0----3--1--------0--|
---------------2---------|--2----------------------|--2---------------2-------|
-------------------------|---------------2---------|--3-----------------3-----|
--0----0----0-----0------|--0----0----0--0---------|--------------------------|
-------------------------|-------------------------|--3-----3-----3-----------|


  E.  S E  E  E  E  E  E     E  E  E  S S S E  S E  E   
--------------------------|--5-------------------------|
------3----6--5-----3--5--|--------1--------1-------0--|
--5--------------5--------|-----2-------2--------0-----|
--------3-----------3-----|-----------3--------3-------|
--------------------------|----------------------------|
--3-----------3-----------|--3-----3------3------3-----|


  E  E  E  S S S E  S E  E     E  E  Q    E  E  E  S  S  
----------------------3--2--|--3-------------3-----2p-0-|
--------1--------1----------|--5-----5-------5----------|
-----2-------2--------------|-----5---------------------|
--3--------3--------3-------|---------------------------|
----------------------------|--0-----0----0-----0-------|
--3-----3------3------3-----|---------------------------|


  Q    E  E  E  E  E  S  S    Q    Q    E  E  E  S S    Q    Q    E  E  E   E   
--2-------3-----2----------|--0--------------------0-|-------------------------|
--3-------3-----------5p-3-|--1------------------1---|--3---------------1p--0--|
---------------------------|---------------2---------|--2------------2---------|
---------------------------|-------------------------|-------------------------|
--0----0-----0-----0-------|--0----0----0-----0------|--0----0----0-----0------|
---------------------------|-------------------------|-------------------------|


  Q    E  E  Q    Q       Q    Q    Q    Q       E  E  E  S S S S E  E  E   
-----------------------|----------------------|--------0--------0----------|
--1----3---------------|----------------------|-----1-------1--------0--3--|
----------2------------|--2-------------------|--2--------2-------2--------|
-----------------------|--0-------------------|----------------------------|
-----------------------|----------------------|----------------------------|
--0----0-----0----0----|--2----2----2----2----|--3------------3------3-----|


  E  E  E  S S S E  S E  E      Q    Q    Q    Q        Q    Q    Q    E  S S  
----------------------------|---8-------------------|-------------8-------7-5-|
--------5--------5----8--7--|--10-------------------|--10-----------------8-7-|
-----5-------5--------------|-------------9---------|-------------------------|
--7--------7--------7-------|-----------------------|-------------------------|
----------------------------|---0----0----0----0----|---0----0----0----0------|
--5------------5------5-----|-----------------------|-------------------------|


  Q    Q    Q    Q       Q    Q    Q    Q       Q    Q    Q    Q     
--7-------------------|------------7---------|--6-------------------|
--8----8--------------|--8---------8---------|--8-------------------|
-------9----9---------|--9-------------------|------------7---------|
----------------------|----------------------|----------------------|
--7----7----7----7----|--7----7----7----7----|----------------------|
----------------------|----------------------|--5----5----5----5----|


  Q    Q    Q    E  S S    Q    Q    Q    Q       Q    Q    Q    E  S  S  
------------6-------5-3-|--5-------------------|------------5-------2h-4-|
--8-----------------6-5-|--6----6--------------|--6----------------------|
------------------------|-------7----7---------|-------------------------|
------------------------|--3----3----3----3----|--3----3----3----3-------|
------------------------|----------------------|-------------------------|
--5----5----5----5------|----------------------|-------------------------|


  E.  S E  E  E.  S E  E     E.  S E  E   E.  S E  E     Q    Q    Q    Q     
--5---7----5--4--------4--|--2---4----5--10---5----4--|--2-------------------|
------------------5-------|---------------------------|--3-------------------|
--6-----------------------|---------------------------|--4-------------------|
--4-----4-----2-----2-----|--0-----0------------------|----------------------|
--------------------------|---------------4-----4-----|--2----2----2----2----|
--------------------------|---------------------------|----------------------|


  Q    Q    Q    E  S  S    E.   S E  E  E.  S E  E   
--2-----------------5h-7-|--8---10----8--7--------7--|
--3----------------------|-------------------8-------|
--4----------------------|---------------------------|
------------0----2-------|--7------7-----5-----5-----|
--2----4-----------------|---------------------------|
-------------------------|---------------------------|


  E.  S E  E   E.  S E  E     Q    Q    Q    Q       Q    Q    Q    Q     
--5---7----8--13---8----7--|--5-------------------|----------------------|
---------------------------|--6-------------------|----------------------|
---------------------------|----------------------|----------------------|
---------------------------|--0----0----0----0----|--0----2----3----5----|
--8-----8------7-----7-----|----------------------|----------------------|
---------------------------|----------------------|----------------------|


  E  E  E  S S S S E  Q       E  E  E  S S S S E  Q     
---------------------------|---------------------------|
---------------------------|---------------------------|
-----2--0----------2--0----|-----2--0----------2--0----|
--2--------0-2---2---------|--2--------0-2---2---------|
--0-----0------0------0----|--0-----0------0------0----|
---------------------------|---------------------------|


                                                                        ^     
  E  E  E  S S S S E  Q       E  E  E  S S S S E  Q       Q    H        Q     
--0--5--3----0---0-5--3----|--5--8--7----5---5-8--7----|--L----3--------5----|
-----------3---------------|-----------8----------8----|--L----3--------5----|
---------------------------|----------------------7----|--L-------------6----|
---------------------------|---------------------------|---------------------|
--0-----0------0------0----|--0-----0------0------0----|--L-------------0----|
---------------------------|---------------------------|---------------------|


  ^                                      
  W                   W                  
--L----------------|-------------------||
--L----------------|-------------------||
--L----------------|-------------------||
-------------------|-------------------||
--L----------------|-------------------||
-------------------|-------------------||




Duration Legend
---------------
W - whole
H - half
Q - quarter
E - 8th
S - 16th
T - 32nd
X - 64th
. - note dotted
|-n-|  - n-tuplets


Tablature Legend
----------------
L - tied note
x - dead note
g - grace note
(n) - ghost note
> - accentuded note
NH - natural harmonic
AH - artificial harmonic
TH - tapped harmonic
SH - semi harmonic
PH - pitch harmonic
h - hammer on
p - pull off
b - bend
br - bendRelease
pb - preBend
pbr - preBendRelease
brb - bendReleaseBend
\n/ - tremolo bar dip
\n - tremolo bar dive
-/n - tremolo bar Release up
/n\ - tremolo bar inverted dip
/n - tremolo bar return
-\n - tremolo bar Release down
S - shift slide
s - legato slide
/ -  slide into from below or out of upwards
\ -  slide into from above or out of downwards
~ - vibrato
W - wide vibrato
tr - trill
TP - tremolo picking
T - tapping
S - slap
P - pop
< - fade in
^ - brush up
v - brush down
Login or Register to remove this ad.

11 comments on The Man With the Machine Gun

This is pure fuckin'

5

This is pure fuckin' AWESOMENESS ! =D

hell yea dude

5

FFVIII music was the shit. good choice. keep arranging! you've got skills

this is sick dude

5

thank you for this. it's very good. i didn't wanna edit my other comment soo heres 5 more stars

thats not only a very good

thats not only a very good arrangement, but a very fun to play arrangement too >.

Wow awesome arrangement. This

5

Wow awesome arrangement. This is one of my favorite tracks from VIII. Thanks a bunch for this ^_^.

fuuuuuhhhh

5

D: oh my god somebody please record this, this is just... awesome.

hell yes!

5

hell yes!

Thanks a lot. I do really

Thanks a lot. happy.png

I do really appreciate all the comments ^_^.

Best arrangement

5

This is without a doubt the best arrangement of a piece on here. It's perfect, and it's not the easiest of pieces originally, so this is just...amazing. Make more of your own arrangements. Please.

this needs more votes

5

this needs more votes

Gonna join the others in

5

Gonna join the others in saying that this is pretty great. Definitely going to work on it more in the future and see what tempo I can get it up to.