Ads

Lunatic Pandora (Final Fantasy VIII) Guitar Tab

Submitted: Jan 23, 2015 by Exdeath

5
Average: 5 (4 votes)
Download | Listen
Game: Final Fantasy VIII
Composer(s): Nobuo Uematsu
Style: Arrangement, Fingerstyle
Series: Final Fantasy

AutoScroll: Slow | Medium | Fast
  Lunatic Pandora                                 


                         |--3--|  |---3--|  |--3--|  |--3--|   
                         E  E  E  E  E   E  E  E  E  E  E  E   
E||-------------------|--6------------------------------------|
B||-------------------|-----------6---------------------------|
G||-------------------|--------9------------6-----------------|
D||-------------------|-----8-----------10--------7--8--------|
A||-------------------|--------------8---------4-----------7--|
E||-------------------|--6-----L--6------L--6--------L--6--L--|


  |---3--|  |--3--|  |--3--|  |--3--|     |--3--|  |---3--|  |--3--|  |--3--|   
  E  E   E  E  E  E  E  E  E  E  E  E     E  E  E  E  E   E  E  E  E  E  E  E   
---------------------------------------|--6------------------------------------|
--6------------------------------------|-----------6---------------------------|
------------6--------------------------|--------9------------6-----------------|
--------10--------7--8--------3--------|-----8-----------10--------7--8--------|
-----8---------4-----------7--------3--|--------------8---------4-----------7--|
--6------L--6--------L--6-----L--1-----|--6-----L--6------L--6--------L--6--L--|


  |---3--|  |--3--|  |--3--|  |--3--|     |--3--|  |---3--|  |--3--|  |--3--|   
  E  E   E  E  E  E  E  E  E  E  E  E     E  E  E  E  E   E  E  E  E  E  E  E   
---------------------------------------|--6------------------------------------|
--6------------------------------------|-----------6---------------------------|
------------6--------------------------|--------9------------6-----------------|
--------10--------7--8--------3--------|-----8-----------10--------7--8--------|
-----8---------4-----------7--------3--|--------------8---------4-----------7--|
--6------L--6--------L--6-----L--1-----|--6-----L--6------L--6--------L--6--L--|


  |---3--|  |--3--|  |--3--|  |--3--|     |--3--|  |---3--|  |--3--|  |--3--|   
  E  E   E  E  E  E  E  E  E  E  E  E     E  E  E  E  E   E  E  E  E  E  E  E   
---------------------------------------|--6------------------------------------|
--6------------------------------------|-----------6---------------------------|
------------6--------------------------|--------9------------6-----------------|
--------10--------7--8--------3--------|-----8-----------10--------7--8--------|
-----8---------4-----------7--------3--|--------------8---------4-----------7--|
--6------L--6--------L--6-----L--1-----|--6-----L--6------L--6--------L--6--L--|


  |---3--|  |--3--|  |--3--|  |--3--|          |--3-|             
  E  E   E  E  E  E  E  E  E  E  E  E     Q    Q    E  Q    Q     
---------------------------------------|-------------------------|
--6------------------------------------|--2----2----2--2----2----|
------------6--------------------------|--0----0----0--0----0----|
--------10--------7--8--------3--------|-------------------------|
-----8---------4-----------7--------3--|--1---------L--1----L----|
--6------L--6--------L--6-----L--1-----|-------------------------|


                            |--3-|                                  
  H        H           Q    Q    E  Q    Q       H        H         
--0--------L--------|-------------------------|--------------------|
--1--------L--------|--1----1----1--1----1----|--4--------L--------|
--------------------|-------------------------|--3--------L--------|
--------------------|--2----2----2--2----2----|--------------------|
--1--------1--------|--1---------L--1---------|--1--------1--------|
--------------------|-------------------------|--------------------|


       |--3-|                                         |--3-|             
  Q    Q    E  Q    Q       H        H           Q    Q    E  Q    Q     
-------------------------|--0--------L--------|-------------------------|
--2----2----2--2----2----|--1--------L--------|--1----1----1--1----1----|
--0----0----0--0----0----|--------------------|-------------------------|
-------------------------|--------------------|--2----2----2--2----2----|
--1---------L--1----L----|--1--------1--------|--1---------L--1---------|
-------------------------|--------------------|-------------------------|


                      |--3--|  |---3--|  |--3--|  |--3--|   
  W                   E  E  E  E  E   E  E  E  E  E  E  E   
-------------------|--6------------------------------------|
--4----------------|-----------6---------------------------|
--5----------------|--------9------------6-----------------|
-------------------|-----8-----------10--------7--8--------|
-------------------|--------------8---------4-----------7--|
--6----------------|--6-----L--6------L--6--------L--6--L--|


  |---3--|  |--3--|  |--3--|  |--3--|     |--3--|  |---3--|  |--3--|  |--3--|   
  E  E   E  E  E  E  E  E  E  E  E  E     E  E  E  E  E   E  E  E  E  E  E  E   
---------------------------------------|--6------------------------------------|
--6------------------------------------|-----------6---------------------------|
------------6--------------------------|--------9------------6-----------------|
--------10--------7--8--------3--------|-----8-----------10--------7--8--------|
-----8---------4-----------7--------3--|--------------8---------4-----------7--|
--6------L--6--------L--6-----L--1-----|--6-----L--6------L--6--------L--6--L--|


  |---3--|  |--3--|  |--3--|  |--3--|                          
  E  E   E  E  E  E  E  E  E  E  E  E     Q    Q    Q    Q     
---------------------------------------|----------------------|
--6------------------------------------|--4----7----5---------|
------------6--------------------------|-------4---------6----|
--------10--------7--8--------3--------|--6---------7----4----|
-----8---------4-----------7--------3--|----------------------|
--6------L--6--------L--6-----L--1-----|--4----L----4----L----|


  H        H           Q    E  E  H           Q    E  E  H         
--------------------|--6----4--6-----------|----------------------|
--4--------L--------|--4----------6--------|--4-------4-----------|
--------------------|----------------------|-------6--------------|
--6--------L--------|----------------------|-------------8--------|
--------------------|----------------------|----------------------|
--4--------4--------|--4-------L--4--------|--4-------L--4--------|


  Q    Q    Q    Q       H        H           Q    E  E  H         
----------------------|--------------------|--6----4--6-----------|
--4----7----5---------|--4--------L--------|--4----------6--------|
-------4---------6----|--------------------|----------------------|
--6---------7----4----|--6--------L--------|----------------------|
----------------------|--------------------|----------------------|
--4----L----4----L----|--4--------4--------|--4-------L--4--------|


                               |--3-|                                  
  E  E  E  E  H           Q    Q    E  Q    Q       H        H         
--------4-----7--------|-------------------------|--0--------L--------|
-----6-----7-----------|--2----2----2--2----2----|--1--------L--------|
--8--------------------|--0----0----0--0----0----|--------------------|
-----------------------|-------------------------|--------------------|
-----------------------|--1---------L--1----L----|--1--------1--------|
--4--------L--4--------|-------------------------|--------------------|


       |--3-|                                         |--3-|             
  Q    Q    E  Q    Q       H        H           Q    Q    E  Q    Q     
-------------------------|--------------------|-------------------------|
--1----1----1--1----1----|--4--------L--------|--2----2----2--2----2----|
-------------------------|--3--------L--------|--0----0----0--0----0----|
--2----2----2--2----2----|--------------------|-------------------------|
--1---------L--1---------|--1--------1--------|--1---------L--1----L----|
-------------------------|--------------------|-------------------------|


                            |--3-|                                 
  H        H           Q    Q    E  Q    Q       W                 
--0--------L--------|-------------------------|-------------------|
--1--------L--------|--1----1----1--1----1----|--4----------------|
--------------------|-------------------------|--5----------------|
--------------------|--2----2----2--2----2----|-------------------|
--1--------1--------|--1---------L--1---------|-------------------|
--------------------|-------------------------|--6----------------|


  |--3--|  |---3--|  |--3--|  |--3--|     |---3--|  |--3--|  |--3--|  |--3--|   
  E  E  E  E  E   E  E  E  E  E  E  E     E  E   E  E  E  E  E  E  E  E  E  E   
--6------------------------------------|---------------------------------------|
-----------6---------------------------|--6------------------------------------|
--------9------------6-----------------|------------6--------------------------|
-----8-----------10--------7--8--------|--------10--------7--8--------3--------|
--------------8---------4-----------7--|-----8---------4-----------7--------3--|
--6-----L--6------L--6--------L--6--L--|--6------L--6--------L--6-----L--1-----|


  |--3--|  |---3--|  |--3--|  |--3--|     |---3--|  |--3--|  |--3--|  |--3--|   
  E  E  E  E  E   E  E  E  E  E  E  E     E  E   E  E  E  E  E  E  E  E  E  E   
--6------------------------------------|---------------------------------------|
-----------6---------------------------|--6------------------------------------|
--------9------------6-----------------|------------6--------------------------|
-----8-----------10--------7--8--------|--------10--------7--8--------3--------|
--------------8---------4-----------7--|-----8---------4-----------7--------3--|
--6-----L--6------L--6--------L--6--L--|--6------L--6--------L--6-----L--1-----|


  Q    Q    Q    Q       H        H           Q    E  E  H         
----------------------|--------------------|--6----4--6-----------|
--4----7----5---------|--4--------L--------|--4----------6--------|
-------4---------6----|--------------------|----------------------|
--6---------7----4----|--6--------L--------|----------------------|
----------------------|--------------------|----------------------|
--4----L----4----L----|--4--------4--------|--4-------L--4--------|


  Q    E  E  H           Q    Q    Q    Q       H        H         
----------------------|----------------------|--------------------|
--4-------4-----------|--4----7----5---------|--4--------L--------|
-------6--------------|-------4---------6----|--------------------|
-------------8--------|--6---------7----4----|--6--------L--------|
----------------------|----------------------|--------------------|
--4-------L--4--------|--4----L----4----L----|--4--------4--------|


                                                      |--3-|             
  Q    E  E  H           E  E  E  E  H           Q    Q    E  Q    Q     
--6----4--6-----------|--------4-----7--------|-------------------------|
--4----------6--------|-----6-----7-----------|--2----2----2--2----2----|
----------------------|--8--------------------|--0----0----0--0----0----|
----------------------|-----------------------|-------------------------|
----------------------|-----------------------|--1---------L--1----L----|
--4-------L--4--------|--4--------L--4--------|-------------------------|


                            |--3-|                                  
  H        H           Q    Q    E  Q    Q       H        H         
--0--------L--------|-------------------------|--------------------|
--1--------L--------|--1----1----1--1----1----|--4--------L--------|
--------------------|-------------------------|--3--------L--------|
--------------------|--2----2----2--2----2----|--------------------|
--1--------1--------|--1---------L--1---------|--1--------1--------|
--------------------|-------------------------|--------------------|


       |--3-|                                         |--3-|             
  Q    Q    E  Q    Q       H        H           Q    Q    E  Q    Q     
-------------------------|--0--------L--------|-------------------------|
--2----2----2--2----2----|--1--------L--------|--1----1----1--1----1----|
--0----0----0--0----0----|--------------------|-------------------------|
-------------------------|--------------------|--2----2----2--2----2----|
--1---------L--1----L----|--1--------1--------|--1---------L--1---------|
-------------------------|--------------------|-------------------------|


  W                                      
-------------------|-------------------||
--4----------------|-------------------||
--5----------------|-------------------||
-------------------|-------------------||
-------------------|-------------------||
--6----------------|-------------------||
Login or Register to remove this ad.