Love Grows (Final Fantasy VIII) Guitar Tab

Submitted: Aug 16, 2009 by ChelseaRare (Last updated: Feb 06, 2010)

4.4
Average: 4.4 (5 votes)
Download | Listen
Game: Final Fantasy VIII
Composer(s): Nobuo Uematsu
Style: Arrangement, Fingerstyle
Series: Final Fantasy

AutoScroll: Slow | Medium | Fast
Final Fantasy VIII - Love Grows
Composed by Nobuo Uematsu 
Arranged/Tabbed by ChelseaRare




     E  E  E  E  H           E  E  E  E  H           E  E  E  E  H         
E||-----------0-----------|-----------------------|-----------0-----------|
B||--------3-----2--------|--------0--3--2--------|--------3-----2--------|
G||--------2-----2--------|--------2-----2--------|--------2-----2--------|
D||-----2-----------------|-----2-----------------|-----2-----------------|
A||--0--------------------|--0--------------------|--0--------------------|
E||-----------------------|-----------------------|-----------------------|


  E  E  E  E  H           E  E  E  E  E  E  E  E     E  E  E  E  E  E  E  E   
-----------------------|--------------0-----------|--------------------0-----|
--------0--3--2--------|-----------3-----3--------|--------0-----2-----2-----|
--------2-----2--------|--------2-----------2-----|--2-----2-----2-----------|
-----2-----------------|-----2-----------------2--|-----2-----2-----2-----2--|
--0--------------------|--0-----------------------|--0-----------------------|
-----------------------|--------------------------|--------------------------|


  E  E  E  E  E  E  E  E     E  E  H        E  E     E  E  E  E  Q.     E   
--------------2-----------|-----------------------|------------------------|
--2--------2-----2--------|--0--2-----------------|-----------0--3---------|
--------2-----------2-----|--------2-----------2--|--4-----2-----1---------|
-----4-----------------4--|-----------------4-----|-----2---------------2--|
--4-----------------------|--2--------------------|--2---------------------|
--------------------------|-----------------------|------------------------|


  E  E  E  E  E  E  E  E     E  E  E  E  H           E  E  H        E  E   
--------------------0-----|--4--------------------|--4--5--2--------0--2--|
--------0-----2-----------|--0-----------2--------|-----------------------|
--2-----2-----2-----------|-----------1-----------|--1--------------------|
-----2-----2-----2-----2--|--6-----2--------------|-----------------------|
--0-----------------------|-----4-----------------|-----------------------|
--------------------------|-----------------------|-----------------------|


  E  E  E  E  E  E  E  E     Q    E  E  Q    Q       E  E  H        E  E   
--0--------------------0--|--5-------5--4---------|-----0--0--------------|
-----------0--3--0--------|-------7----------7----|--7-----------------5--|
--------2-----1-----1-----|-------------6---------|-----------------6-----|
--2--2--------------------|-------7---------------|--7--------------------|
--------------------------|-----------------------|-----------------------|
--------------------------|-----------------------|-----------------------|


  Q    E  E  E  E  E  E     Q    Q    Q    S S S S    E  E  E  E  E  E  E  E   
-------0-----4-----------|-------4----7----------0-|--------------------------|
--7-------7--5-----------|--0---------5------0-2---|--------0-----2-----3-----|
----------------7-----6--|-------4---------2-------|--2-----2-----2-----2-----|
-------6-----------7-----|-------------------------|-----2-----2-----2-----2--|
-------------------------|-------------------------|--0-----------------------|
-------------------------|-------------------------|--------------------------|


  H        E  E  E  E     H.           Q       W                 
--0--------L-----------|--0-----------------|-------------------|
--2--------L-----------|--------------------|-------------------|
-----------------------|--6-----------------|--2----------------|
--------------2--0-----|--------------------|--2----------------|
--------------------0--|--4------------2----|--0----------------|
-----------------------|--------------------|-------------------|


  H        E.  E.  E     Q.     E  Q    Q       H        E.  E.  E   
-------------------0--|--4------2------------|-----------2---4---5--|
---------------2------|--0---------3----2----|--0-------------------|
--L--------2----------|----------------------|----------------------|
--L-------------------|--6-------------------|-----------4-------7--|
--L--------0----------|----------------------|--2-------------------|
----------------------|----------------------|----------------------|


  Q.     E  Q    Q       H        E  E  E  E     Q.     E  E  E  E  E   
--2------0--0---------|-----------------------|--0---------------------|
-----------------3----|--------------2--2--3--|---------------2--2--3--|
----------------------|--6--------L-----------|---------0--------------|
--4---------2---------|-----------------------|------------4-----------|
----------------------|--------------4-----5--|--4------------4-----5--|
----------------------|-----------------------|------------------------|


  Q.     E  H           Q    Q    E.  E.  E     Q.     E  E.  E.  E   
--0------------------|----------------0---2--|--------------------0--|
--0------3--3--------|------------3----------|--3------2------2------|
--2------------------|--1----2---------------|------------2----------|
--2---------0--------|--2--------------------|--0--------------------|
---------------------|-----------------------|-----------------------|
---------------------|--0--------------------|-----------------------|


  Q.     E  H           H        E.  E.  E     Q.     Q.     Q     
--4------2--2--------|-----------2---4---5--|--4-------------4----|
--0------------------|----------------------|---------5-----------|
---------------------|----------------------|---------------------|
--6---------2--------|--4--------4-------7--|---------------------|
---------------------|----------------------|--4------------------|
---------------------|----------------------|---------------------|


  H        E  E  E  E     E  E  Q    E  E  E  S S    Q.     Q    E  E  E   
--2--------L-----------|--0-----5-----------------|-----------------------|
--------------3--2-----|-----3--7---------------0-|--2------2----0--------|
--3--------L--------3--|-------------7--6-----2---|-----------------2--1--|
--4--------L--0--------|--------7----------8------|-----------------------|
--------------------1--|--------------------------|--4-----------2--------|
-----------------------|--------------------------|-----------------------|


  ^                   ^                                     
  W                   W                   W                 
-------------------|-------------------|-------------------|
-------------------|-------------------|-------------------|
--4----------------|--2----------------|--L----------------|
--2----------------|--2----------------|--L----------------|
--4----------------|--0----------------|--L----------------|
-------------------|--0----------------|--L----------------|



Duration Legend
---------------
W - whole
H - half
Q - quarter
E - 8th
S - 16th
. - note dotted


Tablature Legend
----------------
L - tied note
^ - brush up
Login or Register to remove this ad.

1 comment on Love Grows

Very good job, my favourite

Very good job, my favourite song of ff8