Ads

The Legendary Beast (Final Fantasy VIII) Bass/Guitar Tab

Submitted: Dec 09, 2012 by Jacob31593 (Last updated: Dec 09, 2012)

5
Average: 5 (5 votes)
Download | Listen
Game: Final Fantasy VIII
Composer(s): Nobuo Uematsu
Style: 2 or more instruments, Arrangement, Pinch harmonics
Series: Final Fantasy

AutoScroll: Slow | Medium | Fast

The Legendary Beast from Final Fantasy VIII
Composed by Nobuo Uematsu
Tabbed by Jacob31593
December 9th 2012

IT IS DONE
i increased the tempo a little!

115BPM

Lead

                             Q    Q    Q     Q       W                   W                 
E||-------|-------|-------|-----------------------|-------------------|-------------------|
B||-------|-------|-------|-----------------------|-------------------|-------------------|
G||-------|-------|-------|-----------------12----|--L----------------|--L----------------|
D||-------|-------|-------|-----------------------|-------------------|-------------------|
A||-------|-------|-------|-----------------------|-------------------|-------------------|
E||-------|-------|-------|-----------------------|-------------------|-------------------|


  W                                                                                                         
-------------------|-------|-------|-------|-------|-------|-------|-------|-------|-------|-------|-------|
-------------------|-------|-------|-------|-------|-------|-------|-------|-------|-------|-------|-------|
--L----------------|-------|-------|-------|-------|-------|-------|-------|-------|-------|-------|-------|
-------------------|-------|-------|-------|-------|-------|-------|-------|-------|-------|-------|-------|
-------------------|-------|-------|-------|-------|-------|-------|-------|-------|-------|-------|-------|
-------------------|-------|-------|-------|-------|-------|-------|-------|-------|-------|-------|-------|


-------|-------|-------|-------|-------|-------|-------|-------|-------|-------|-------|-------|-------|
-------|-------|-------|-------|-------|-------|-------|-------|-------|-------|-------|-------|-------|
-------|-------|-------|-------|-------|-------|-------|-------|-------|-------|-------|-------|-------|
-------|-------|-------|-------|-------|-------|-------|-------|-------|-------|-------|-------|-------|
-------|-------|-------|-------|-------|-------|-------|-------|-------|-------|-------|-------|-------|
-------|-------|-------|-------|-------|-------|-------|-------|-------|-------|-------|-------|-------|


|--------|-------|-------|-------|-------|-------|-------|-------|-------|
|--------|-------|-------|-------|-------|-------|-------|-------|-------|
|*-------|-------|-------|-------|-------|-------|-------|-------|-------|
|*-------|-------|-------|-------|-------|-------|-------|-------|-------|
|--------|-------|-------|-------|-------|-------|-------|-------|-------|
|--------|-------|-------|-------|-------|-------|-------|-------|-------|


   S  S S  S  E    S  S  E   E   E.    S     E   E   E.    S  E   E   S  S  S  S  
-----------------------------------------|---------------------------------------|
--------------------------------18~------|--18--20-------------------18----------|
--17-19-Lb---19b--19-17-19--20--------20-|----------19~---17-19--20-----20-19----|
-----------------------------------------|------------------------------------20-|
-----------------------------------------|---------------------------------------|
-----------------------------------------|---------------------------------------|


   S  S  S  S  E   S  S  E   E   E.    S     E   E   E.    S  E   E      E   E   
-----------------------------------------|-----------------------19--17g20--22--|
-----------21-20--18------------18~------|--18--20--21~---20-21-----------------|
--17----17-----------20-19--20--------20-|--------------------------------------|
-----17----------------------------------|--------------------------------------|
-----------------------------------------|--------------------------------------|
-----------------------------------------|--------------------------------------|


   E   S  S  Q     E   S  S  Q        S  S  S  S  S  S S  S  S  S  S  S  S  S  S  S  
--23-----23-22----20-----20-19----|--20------------------20-------------------------|
------20--------------20----------|-----20-21-19-20---------20-21-19-20----18-16-15-|
----------------------------------|-----------------19------------------19----------|
----------------------------------|-------------------------------------------------|
----------------------------------|-------------------------------------------------|
----------------------------------|-------------------------------------------------|


   S S S S Q    Q    Q                E   E   E  E      Q      E   E      E  E   E  E   Q.       E   
--------------------------|-------|--17--18--20-----18g20~----18--17--|--18-----17--------------18--|
--13----------------------|-------|-----------------------------------|----------------20~----------|
--------------------------|-------|-----------------------------------|-----------------------------|
--------------------------|-------|-----------------------------------|-----------------------------|
--------------------------|-------|-----------------------------------|-----------------------------|
--------------------------|-------|-----------------------------------|-----------------------------|


   E  E   E  E   Q.       E      E  E   E  E   E      E   E   E      S  S  S S  E   S  S  S S  S S  E.   S  
--17---------------------17--|-----------------------------------|-----------------------------------------|
---------20-----18~----------|--20-----18-----17--18g20--18--17--|--15-17-18---18--17-15-17---18---20---18-|
-----------------------------|-----------------------------------|-----------------------------------------|
-----------------------------|-----------------------------------|-----------------------------------------|
-----------------------------|-----------------------------------|-----------------------------------------|
-----------------------------|-----------------------------------|-----------------------------------------|


   S  S  S S  E   S  S  S S  S S  E.   S                                          
-----17-18---18--17----17---18---20---18-|-------------------|-------------------|
--20----------------20-------------------|-------------------|-------------------|
-----------------------------------------|-------------------|-------------------|
-----------------------------------------|-------------------|-------------------|
-----------------------------------------|-------------------|-------------------|
-----------------------------------------|-------------------|-------------------|


  Q    E  T T  T  T H            Q    E  T T  T  T H            Q    E  T T  T  T H          
--------------------8~--------|--------------------7~--------|--------------------6~--------|
------------------------------|------------------------------|------------------------------|
-------7----7h-8h-9-----------|-------7----7h-8h-9-----------|-------7----7h-8h-9-----------|
------------------------------|------------------------------|------------------------------|
------------------------------|------------------------------|------------------------------|
------------------------------|------------------------------|------------------------------|


  Q    E  T T  T  T  H            Q    E  T T  T  T H            Q    E  T T  T  T H          
-------------------------------|--------------------8~--------|--------------------7~--------|
--------------------10~--------|------------------------------|------------------------------|
-------7----7h-8h-9------------|-------7----7h-8h-9-----------|-------7----7h-8h-9-----------|
-------------------------------|------------------------------|------------------------------|
-------------------------------|------------------------------|------------------------------|
-------------------------------|------------------------------|------------------------------|


  Q    E  T T  T  T H            Q    E  T T  T  T  H                                  
--------------------6~--------|-------------------------------|-----------|-----------|
------------------------------|--------------------10~--------|-----------|-----------|
-------7----7h-8h-9-----------|-------7----7h-8h-9------------|-----------|-----------|
------------------------------|-------------------------------|-----------|-----------|
------------------------------|-------------------------------|-----------|-----------|
------------------------------|-------------------------------|-----------|-----------|


  Q    E  S  S  H            S S S  S  H.                                      Q    E  S  S  H         
----------9-11-11--------|--11-----14-11------------|-----------|-----------|----------9-11-11--------|
----------9--9--9--------|---9-----12--9------------|-----------|-----------|----------9--9--9--------|
-------------------------|--------------------------|-----------|-----------|-------------------------|
-------------------------|--------------------------|-----------|-----------|-------------------------|
-------------------------|--------------------------|-----------|-----------|-------------------------|
-------------------------|--------------------------|-----------|-----------|-------------------------|


   S S S  S  H.              Q     E  T  T   T   T  H            Q     E  T  T   T   T  H          
--11-----14-11------------|------------------------11~--------|------------------------10~--------|
---9-----12--9------------|-----------------------------------|-----------------------------------|
--------------------------|-------10----10h-11h-12------------|-------10----10h-11h-12------------|
--------------------------|-----------------------------------|-----------------------------------|
--------------------------|-----------------------------------|-----------------------------------|
--------------------------|-----------------------------------|-----------------------------------|


  Q     E  T  T   T   T H           Q     E  T  T   T   T  H            Q     E  T  T   T   T  H          
------------------------9--------|-----------------------------------|------------------------11~--------|
---------------------------------|------------------------13~--------|-----------------------------------|
-------10----10h-11h-12----------|-------10----10h-11h-12------------|-------10----10h-11h-12------------|
---------------------------------|-----------------------------------|-----------------------------------|
---------------------------------|-----------------------------------|-----------------------------------|
---------------------------------|-----------------------------------|-----------------------------------|


  Q     E  T  T   T   T  H            Q     E  T  T   T   T H           Q     E  T  T   T   T  H          
------------------------10~--------|------------------------9--------|-----------------------------------|
-----------------------------------|---------------------------------|------------------------13~--------|
-------10----10h-11h-12------------|-------10----10h-11h-12----------|-------10----10h-11h-12------------|
-----------------------------------|---------------------------------|-----------------------------------|
-----------------------------------|---------------------------------|-----------------------------------|
-----------------------------------|---------------------------------|-----------------------------------|


                                                  H        H           H        H         
-----------|-----------|-----------|-----------|--------------------|--------------------|
-----------|-----------|-----------|-----------|--7--------6--------|--8--------7--------|
-----------|-----------|-----------|-----------|--------------------|--------------------|
-----------|-----------|-----------|-----------|--------------------|--------------------|
-----------|-----------|-----------|-----------|--------------------|--------------------|
-----------|-----------|-----------|-----------|--------------------|--------------------|


  H        H           H        H           
--------------------|---------------------||
--7--------6--------|--8--------7---------||
--------------------|--------------------*||
--------------------|--------------------*||
--------------------|---------------------||
--------------------|---------------------||


Lead Harmony

                             Q    Q     Q     Q       Q    Q    Q    Q       W                 
E||-------|-------|-------|------------------------|----------------------|-------------------|
B||-------|-------|-------|------------------------|----------------------|-------------------|
G||-------|-------|-------|------------13-----L----|--L----L----L----L----|--L----------------|
D||-------|-------|-------|------------------------|----------------------|-------------------|
A||-------|-------|-------|------------------------|----------------------|-------------------|
E||-------|-------|-------|------------------------|----------------------|-------------------|


  W                                                                                                 
-------------------|-------------------|-------------------|-------------------|-------------------|
-------------------|-------------------|-------------------|-------------------|-------------------|
--L----------------|-------------------|-------------------|-------------------|-------------------|
-------------------|-------------------|-------------------|-------------------|-------------------|
-------------------|-------------------|-------------------|-------------------|-------------------|
-------------------|-------------------|-------------------|-------------------|-------------------|


-------------------|-------------------|-------------------|-------------------|-------------------|
-------------------|-------------------|-------------------|-------------------|-------------------|
-------------------|-------------------|-------------------|-------------------|-------------------|
-------------------|-------------------|-------------------|-------------------|-------------------|
-------------------|-------------------|-------------------|-------------------|-------------------|
-------------------|-------------------|-------------------|-------------------|-------------------|


-------------------|-------------------|-------------------|-------------------|-------------------|
-------------------|-------------------|-------------------|-------------------|-------------------|
-------------------|-------------------|-------------------|-------------------|-------------------|
-------------------|-------------------|-------------------|-------------------|-------------------|
-------------------|-------------------|-------------------|-------------------|-------------------|
-------------------|-------------------|-------------------|-------------------|-------------------|


-------------------|-------------------|-------------------|-------------------|-------------------|
-------------------|-------------------|-------------------|-------------------|-------------------|
-------------------|-------------------|-------------------|-------------------|-------------------|
-------------------|-------------------|-------------------|-------------------|-------------------|
-------------------|-------------------|-------------------|-------------------|-------------------|
-------------------|-------------------|-------------------|-------------------|-------------------|


-------------------|-------------------|-------------------|-------------------|-------------------|
-------------------|-------------------|-------------------|-------------------|-------------------|
-------------------|-------------------|-------------------|-------------------|-------------------|
-------------------|-------------------|-------------------|-------------------|-------------------|
-------------------|-------------------|-------------------|-------------------|-------------------|
-------------------|-------------------|-------------------|-------------------|-------------------|


    S S S  S E   S S E   E  E.    S    E  E  E.   S E   E  S  S S  S    S S S  S E  S  S E   E  E.    S  
|-----------------------------------|--------------------------------|----------------------------------|
|-----------------------------------|--------------------------------|----------------------------------|
|*--------------------------7~------|--7--9----------------7---------|--------10-9--7-----------7~------|
|*--7-9-Lb---9b--9-7-9--10-------10-|--------9~---7-9--10----10-9----|--7---7---------10-9--10-------10-|
|-----------------------------------|-----------------------------10-|----7-----------------------------|
|-----------------------------------|--------------------------------|----------------------------------|


  E  E   E.   S  E  E     E  E     E  S S S S S S E  S S S S S S    S S S S S S S S S S S S S S S S  
-----------------------------7--|--8----8-7-----7-5----5-4-----4-|--5-------------5-----------------|
--------------------9--7g10-----|-----5-------6------5-------5---|----5-6-4-5-------5-6-4-5---------|
--7--9--10~---9-10--------------|-----------7--------------4-----|------------4-------------4-7-5-4-|
--------------------------------|--------------------------------|----------------------------------|
--------------------------------|--------------------------------|----------------------------------|
--------------------------------|--------------------------------|----------------------------------|


  S S S S Q    Q    Q                    S  S S  S  E    S  S  E   E   E.    S  
-------------------------|-----|-----|-----------------------------------------|
-------------------------|-----|-----|-----------------------------------------|
--2----------------------|-----|-----|--------------------------------10~------|
-------------------------|-----|-----|--10-12-Lb---12b--12-10-12--13--------13-|
-------------------------|-----|-----|-----------------------------------------|
-------------------------|-----|-----|-----------------------------------------|


   E   E   E.    S  E   E   S  S  S  S     S  S  S  S  E   S  S  E   E   E.    S  
---------------------------------------|-----------------------------------------|
---------------------------------------|-----------------------------------------|
--10--12-------------------10----------|-----------13-12--10------------10~------|
----------12~---10-12--13-----13-12----|--10----10-----------13-12--13--------13-|
------------------------------------13-|-----10----------------------------------|
---------------------------------------|-----------------------------------------|


   E   E   E.    S  E   E      E   E      E  S  S  Q    E  S S Q       S S S S S S S S S S S S S  S S S  
----------------------------------10--|--11----11-10----8----8-7----|--8-------------8------------------|
-----------------------12--10g13------|------8-------------8--------|----8-9-7-8-------8-9-7-8----------|
--10--12--13~---12-13-----------------|-----------------------------|------------7-------------7-10-8-7-|
--------------------------------------|-----------------------------|-----------------------------------|
--------------------------------------|-----------------------------|-----------------------------------|
--------------------------------------|-----------------------------|-----------------------------------|


   S S S S Q    Q    Q             E   E   E  E      Q      E   E      E  E   E  E   Q.       E   
--------------------------|----|--13--15--17-----15g17~----15--13--|--15-----13--------------15--|
--------------------------|----|-----------------------------------|----------------17~----------|
--------------------------|----|-----------------------------------|-----------------------------|
--10----------------------|----|-----------------------------------|-----------------------------|
--------------------------|----|-----------------------------------|-----------------------------|
--------------------------|----|-----------------------------------|-----------------------------|


   E  E   E  E   Q.       E      E  E   E  E   E      E   E   E      W                                      
--13---------------------13--|-----------------------------------|---------------------|-------------------|
---------17-----15~----------|--17-----15-----13--15g17--15--13--|---------------------|-------------------|
-----------------------------|-----------------------------------|--15~----------------|-------------------|
-----------------------------|-----------------------------------|---------------------|-------------------|
-----------------------------|-----------------------------------|---------------------|-------------------|
-----------------------------|-----------------------------------|---------------------|-------------------|


                                          Q    E  T T  T   T  H            Q    E  T T  T   T H          
-------------------|-------------------|--------------------------------|-------------------------------|
-------------------|-------------------|--------------------------------|-------------------------------|
-------------------|-------------------|---------------------10~--------|---------------------7~--------|
-------------------|-------------------|--------------------------------|-------------------------------|
-------------------|-------------------|-------8----8h-9h-10------------|-------8----8h-9h-10-----------|
-------------------|-------------------|--------------------------------|-------------------------------|


  Q    E  T T  T   T  H            Q    E  T T  T   T H            Q    E  T T  T   T  H          
--------------------------------|-------------------------------|--------------------------------|
--------------------------------|-------------------------------|--------------------------------|
---------------------10~--------|---------------------7~--------|---------------------10~--------|
--------------------------------|-------------------------------|--------------------------------|
-------8----8h-9h-10------------|-------8----8h-9h-10-----------|-------8----8h-9h-10------------|
--------------------------------|-------------------------------|--------------------------------|


  Q    E  T T  T   T H            Q    E  T T  T   T  H            Q    E  T T  T   T H                      
-------------------------------|--------------------------------|-------------------------------|-----------|
-------------------------------|--------------------------------|-------------------------------|-----------|
---------------------7~--------|---------------------10~--------|---------------------7~--------|-----------|
-------------------------------|--------------------------------|-------------------------------|-----------|
-------8----8h-9h-10-----------|-------8----8h-9h-10------------|-------8----8h-9h-10-----------|-----------|
-------------------------------|--------------------------------|-------------------------------|-----------|


  Q    E  S S H           S S S  S H.                                      Q    E  S S H         
-----------------------|------------------------|-----------|-----------|-----------------------|
----------7-9-7--------|--9-----12-9------------|-----------|-----------|----------7-9-7--------|
----------6-8-6--------|--8-----13-8------------|-----------|-----------|----------6-8-6--------|
----------4-6-4--------|--6------9-6------------|-----------|-----------|----------4-6-4--------|
-----------------------|------------------------|-----------|-----------|-----------------------|
-----------------------|------------------------|-----------|-----------|-----------------------|


  S S S  S H.                          Q     E  T  T   T   T  H            Q     E  T  T   T   T  H          
------------------------|-----------|-----------------------------------|-----------------------------------|
--9-----12-9------------|-----------|-----------------------------------|-----------------------------------|
--8-----13-8------------|-----------|------------------------13~--------|------------------------10~--------|
--6------9-6------------|-----------|-----------------------------------|-----------------------------------|
------------------------|-----------|-------11----11h-12h-13------------|-------11----11h-12h-13------------|
------------------------|-----------|-----------------------------------|-----------------------------------|


  Q     E  T  T   T   T  H            Q     E  T  T   T   T  H            Q     E  T  T   T   T  H          
-----------------------------------|-----------------------------------|-----------------------------------|
-----------------------------------|-----------------------------------|-----------------------------------|
------------------------13~--------|------------------------10~--------|------------------------13~--------|
-----------------------------------|-----------------------------------|-----------------------------------|
-------11----11h-12h-13------------|-------11----11h-12h-13------------|-------11----11h-12h-13------------|
-----------------------------------|-----------------------------------|-----------------------------------|


  Q     E  T  T   T   T  H            Q     E  T  T   T   T  H            Q     E  T  T   T   T  H          
-----------------------------------|-----------------------------------|-----------------------------------|
-----------------------------------|-----------------------------------|-----------------------------------|
------------------------10~--------|------------------------13~--------|------------------------10~--------|
-----------------------------------|-----------------------------------|-----------------------------------|
-------11----11h-12h-13------------|-------11----11h-12h-13------------|-------11----11h-12h-13------------|
-----------------------------------|-----------------------------------|-----------------------------------|


                                                                           H         Q     Q     
-----------|-----------|-----------|-----------|-----------|-----------|------------------------|
-----------|-----------|-----------|-----------|-----------|-----------|--15--------14----17----|
-----------|-----------|-----------|-----------|-----------|-----------|------------------------|
-----------|-----------|-----------|-----------|-----------|-----------|------------------------|
-----------|-----------|-----------|-----------|-----------|-----------|------------------------|
-----------|-----------|-----------|-----------|-----------|-----------|------------------------|


   Q     Q     H           
--15----13----14---------||
-------------------------||
------------------------*||
------------------------*||
-------------------------||
-------------------------||

Harmony

      E      E      E      E      E      E      E      E   
E||--17--15g17--15g17--15g17--15g17--15g17--15g17--15g17--|
B||-------------------------------------------------------|
G||-------------------------------------------------------|
D||-------------------------------------------------------|
A||-------------------------------------------------------|
E||-------------------------------------------------------|


      E      E      E      E      E      E      E      E   
--15g17--15g17--15g17--15g17--15g17--15g17--15g17--15g17--|
----------------------------------------------------------|
----------------------------------------------------------|
----------------------------------------------------------|
----------------------------------------------------------|
----------------------------------------------------------|


      E      E      E      E      E      E      E      E              Q     Q    Q     Q     
--15g17--15g17--15g17--15g17--15g17--15g17--15g17--15g17--|-------|-------------------15----|
----------------------------------------------------------|-------|--16----15----L----------|
----------------------------------------------------------|-------|-------------------------|
----------------------------------------------------------|-------|-------------------------|
----------------------------------------------------------|-------|-------------------------|
----------------------------------------------------------|-------|-------------------------|


  W                   W                                                 
--L----------------|--L----------------|-------|-------|-------|-------|
-------------------|-------------------|-------|-------|-------|-------|
-------------------|-------------------|-------|-------|-------|-------|
-------------------|-------------------|-------|-------|-------|-------|
-------------------|-------------------|-------|-------|-------|-------|
-------------------|-------------------|-------|-------|-------|-------|


   S  S  S S  S  S  S  S  S S  S S  E   E      S  S  S  S  S S  S S  S S  S S  E   E   
--17---------17----------17---20---19--16--|--17----------17---20---19---17---16--19--|
-----18-17------18-17-18-------------------|-----18-17-18-----------------------------|
-------------------------------------------|------------------------------------------|
-------------------------------------------|------------------------------------------|
-------------------------------------------|------------------------------------------|
-------------------------------------------|------------------------------------------|


   S  S  S S  S  S  S  S  S S  S S  E   E      S  S  S  S  S S  S S  S S  S S  E   E   
--17---------17----------17---20---19--16--|--17----------17---20---19---17---16--19--|
-----18-17------18-17-18-------------------|-----18-17-18-----------------------------|
-------------------------------------------|------------------------------------------|
-------------------------------------------|------------------------------------------|
-------------------------------------------|------------------------------------------|
-------------------------------------------|------------------------------------------|


   S  S  S S  S  S  S  S  S S  S S  E   E      S  S  S  S  S S  S S  S S  S S  E   E   
--20-16------20-16----16-20---23---22--19--|--20-16----16-20---23---22---20---19--22--|
--------20---------20----------------------|--------20--------------------------------|
-------------------------------------------|------------------------------------------|
-------------------------------------------|------------------------------------------|
-------------------------------------------|------------------------------------------|
-------------------------------------------|------------------------------------------|


   S  S  S S  S  S  S  S  S S  S S  E   E      S  S  S  S  S S  S S  S S  S S  E   E   
--20-16------20-16----16-20---23---22--19--|--20-16----16-20---23---22---20---19--22--|
--------20---------20----------------------|--------20--------------------------------|
-------------------------------------------|------------------------------------------|
-------------------------------------------|------------------------------------------|
-------------------------------------------|------------------------------------------|
-------------------------------------------|------------------------------------------|


   S  S  S S  S  S  S  S  S S  S S  E   E      S  S  S  S  S S  S S  S S  S S  E   E   
--17---------17----------17---20---19--16--|--17----------17---20---19---17---16--19--|
-----18-17------18-17-18-------------------|-----18-17-18-----------------------------|
-------------------------------------------|------------------------------------------|
-------------------------------------------|------------------------------------------|
-------------------------------------------|------------------------------------------|
-------------------------------------------|------------------------------------------|


   S  S  S S  S  S  S  S  S S  S S  E   E      S  S  S  S  S S  S S  S S  S S  E   E   
--17---------17----------17---20---19--16--|--17----------17---20---19---17---16--19--|
-----18-17------18-17-18-------------------|-----18-17-18-----------------------------|
-------------------------------------------|------------------------------------------|
-------------------------------------------|------------------------------------------|
-------------------------------------------|------------------------------------------|
-------------------------------------------|------------------------------------------|


   S  S  S S  S  S  S  S  S S  S S  E   E      S  S  S  S  S S  S S  S S  S S  E   E   
--20-16------20-16----16-20---23---22--19--|--20-16----16-20---23---22---20---19--22--|
--------20---------20----------------------|--------20--------------------------------|
-------------------------------------------|------------------------------------------|
-------------------------------------------|------------------------------------------|
-------------------------------------------|------------------------------------------|
-------------------------------------------|------------------------------------------|


   S  S  S S  S  S  S  S  S S  S S  E   E      S  S  S  S  S S  S S  S S  S S  E   E                     
--20-16------20-16----16-20---23---22--19--|--20-16----16-20---23---22---20---19--22--|-----|-----|-----|
--------20---------20----------------------|--------20--------------------------------|-----|-----|-----|
-------------------------------------------|------------------------------------------|-----|-----|-----|
-------------------------------------------|------------------------------------------|-----|-----|-----|
-------------------------------------------|------------------------------------------|-----|-----|-----|
-------------------------------------------|------------------------------------------|-----|-----|-----|


                                               S  S  S  S  S  S  S  S  S  S  S  S  S  S  S  S  
-----||------|-----|-----|-----|-----|-----|--17----------------------------------------------|
-----||------|-----|-----|-----|-----|-----|-----17-18-16-17-------18-17-12-13-11-12-------12-|
-----||*-----|-----|-----|-----|-----|-----|-----------------16-17-------------------11-13----|
-----||*-----|-----|-----|-----|-----|-----|--------------------------------------------------|
-----||------|-----|-----|-----|-----|-----|--------------------------------------------------|
-----||------|-----|-----|-----|-----|-----|--------------------------------------------------|


   S S E  Q    Q    Q                                               
-------------------------|-----|-----|-----|-----|-----|-----|-----|
--10---------------------|-----|-----|-----|-----|-----|-----|-----|
-------------------------|-----|-----|-----|-----|-----|-----|-----|
-------------------------|-----|-----|-----|-----|-----|-----|-----|
-------------------------|-----|-----|-----|-----|-----|-----|-----|
-------------------------|-----|-----|-----|-----|-----|-----|-----|


   S  S  S  S  S  S  S  S  S  S  S  S  S  S  S  S     S S Q    Q    Q    E                                 
--20----------------------------------------------|-------------------------|-----|-----|-----|-----|-----|
-----20-21-19-20-------21-20-15-16-14-15-------15-|--13---------------------|-----|-----|-----|-----|-----|
-----------------19-20-------------------14-16----|-------------------------|-----|-----|-----|-----|-----|
--------------------------------------------------|-------------------------|-----|-----|-----|-----|-----|
--------------------------------------------------|-------------------------|-----|-----|-----|-----|-----|
--------------------------------------------------|-------------------------|-----|-----|-----|-----|-----|


         S  S  S S  E   S  S  S S  S S  E.   S     S  S  S  S  S  S S  S  S  S  S  S  S  S  S  S  
-----|-----------------------------------------|-------------------------------------------------|
-----|-----15-17---17--15----15---17---18---20-|--22-17-18-15-17------22-17-18-15-17----17-15----|
-----|--17----------------17-------------------|-----------------17------------------17-------17-|
-----|-----------------------------------------|-------------------------------------------------|
-----|-----------------------------------------|-------------------------------------------------|
-----|-----------------------------------------|-------------------------------------------------|


   S S S S Q    Q    Q                                                                                     
--------------------------|-------|-------|-------|-------|-------|-------|-------|-------|-------|-------|
--15----------------------|-------|-------|-------|-------|-------|-------|-------|-------|-------|-------|
--------------------------|-------|-------|-------|-------|-------|-------|-------|-------|-------|-------|
--------------------------|-------|-------|-------|-------|-------|-------|-------|-------|-------|-------|
--------------------------|-------|-------|-------|-------|-------|-------|-------|-------|-------|-------|
--------------------------|-------|-------|-------|-------|-------|-------|-------|-------|-------|-------|


           |---3---|   |---3---|   |---3---|   |---3---|      |---3---|   |---3---|   |---3---|   |---3---|   
           E   E   E   E   E   E   E   E   E   E   E   E      E   E   E   E   E   E   E   E   E   E   E   E   
-------|--------------------------14----------------------|--------------------------------------14--16--17--|
-------|--------------15--16--18------18--16--14----------|------------------14--16--17--16--17--------------|
-------|--13--15--16------------------------------16--15--|--14--13--14--16----------------------------------|
-------|--------------------------------------------------|--------------------------------------------------|
-------|--------------------------------------------------|--------------------------------------------------|
-------|--------------------------------------------------|--------------------------------------------------|


   |---3---|   |---3---|   |---3---|   |---3---|                              |-----9-----|  9  9  9  9       
   E   E   E   E   E   E   E   E   E   E   E   E      S  S  S  S  S  S  S  S  S  S  S  S  S  S  S  S  S       
--16--14--16--------------------------------------|-----------------------------------------------18-19-|----|
--------------18--17--15--14------14--------------|-----------16-17-16----------------16-17-19-21-------|----|
------------------------------16------16--14--13--|--15-16-18----------18-16-15-16-18-------------------|----|
--------------------------------------------------|-----------------------------------------------------|----|
--------------------------------------------------|-----------------------------------------------------|----|
--------------------------------------------------|-----------------------------------------------------|----|


                                         |--3--|          |--3--|                                          
                      Q    Q    Q    E   S  S  S     S S  S  S  S  H        Q       W                      
----|----|----|----|-----------------------------|-------------------------------|-------------------|----|
----|----|----|----|--------------------15-16-17-|--18---15-16-17-18--------L----|--L----------------|----|
----|----|----|----|-----------------------------|-------------------------------|-------------------|----|
----|----|----|----|-----------------------------|-------------------------------|-------------------|----|
----|----|----|----|-----------------------------|-------------------------------|-------------------|----|
----|----|----|----|-----------------------------|-------------------------------|-------------------|----|


----|----|----|----|----|----|-----||
----|----|----|----|----|----|-----||
----|----|----|----|----|----|----*||
----|----|----|----|----|----|----*||
----|----|----|----|----|----|-----||
----|----|----|----|----|----|-----||


Harmony Harmony

     E    E    E    E    E    E    E    E       E    E    E    E    E    E    E    E   
E||--5--3g5--3g5--3g5--3g5--3g5--3g5--3g5--|--3g5--3g5--3g5--3g5--3g5--3g5--3g5--3g5--|
B||----------------------------------------|------------------------------------------|
G||----------------------------------------|------------------------------------------|
D||----------------------------------------|------------------------------------------|
A||----------------------------------------|------------------------------------------|
E||----------------------------------------|------------------------------------------|


    E    E    E    E    E    E    E    E           Q    Q     Q     Q        W                 
--3g5--3g5--3g5--3g5--3g5--3g5--3g5--3g5--|-----|------------18-----L----|--21----------------|
------------------------------------------|-----|------------------------|--------------------|
------------------------------------------|-----|------------------------|--------------------|
------------------------------------------|-----|------------------------|--------------------|
------------------------------------------|-----|------------------------|--------------------|
------------------------------------------|-----|------------------------|--------------------|


  W                                                   W                   H.           Q     
--L----------------|-------|-------|-------|-------|--5----------------|--3------------1----|
-------------------|-------|-------|-------|-------|--5----------------|--3------------3----|
-------------------|-------|-------|-------|-------|--5----------------|--0-----------------|
-------------------|-------|-------|-------|-------|-------------------|--------------------|
-------------------|-------|-------|-------|-------|-------------------|--------------------|
-------------------|-------|-------|-------|-------|-------------------|--------------------|


  W                   W                   W                   H.           Q       W                 
--0----------------|--L----------------|--8----------------|--6------------4----|--3----------------|
--x----------------|-------------------|--8----------------|--6------------6----|--3----------------|
--2----------------|--L----------------|--8----------------|--3-----------------|--0----------------|
--2----------------|--L----------------|-------------------|--------------------|-------------------|
-------------------|-------------------|-------------------|--------------------|-------------------|
-------------------|-------------------|-------------------|--------------------|-------------------|


                           |-3-| |-3-|      |-3-| |-3-|         |-3-| |-3-| |-3-| |-3-| |-3-| |-3-|  
  W                   Q    S S S S S S Q    S S S S S S    Q    S S S S S S S S S S S S S S S S S S  
--L----------------|-------5----------------5-----------|-------5-----------5-----------5-----------|
--L----------------|---------6-5---5-6--------6-5---5-6-|---------6-5---5-6---6-5---5-6---6-5---5-6-|
--L----------------|-------------5----------------5-----|-------------5-----------5-----------5-----|
-------------------|------------------------------------|-------------------------------------------|
-------------------|------------------------------------|-------------------------------------------|
-------------------|------------------------------------|-------------------------------------------|


       |-3-| |-3-|      |-3-| |-3-|         |-3-| |-3-| |-3-| |-3-| |-3-| |-3-|                           
  Q    S S S S S S Q    S S S S S S    Q    S S S S S S S S S S S S S S S S S S    Q     Q    Q     Q     
-------5----------------5-----------|-------5-----------5-----------5-----------|--------8----------8----|
---------6-5---5-6--------6-5---5-6-|---------6-5---5-6---6-5---5-6---6-5---5-6-|--------8----------8----|
-------------5----------------5-----|-------------5-----------5-----------5-----|--------8----------8----|
------------------------------------|-------------------------------------------|-------10---------10----|
------------------------------------|-------------------------------------------|------------------------|
------------------------------------|-------------------------------------------|------------------------|


  Q     Q     Q    Q       Q     Q    Q     Q       Q     Q     Q    Q                                     
--------8-----8----6----|--------8----------8----|--------8-----8----6----|-------|-------|-------|-------|
--------8-----8----8----|--------8----------8----|--------8-----8----8----|-------|-------|-------|-------|
--------8-----8----8----|--------8----------8----|--------8-----8----8----|-------|-------|-------|-------|
-------10----10----8----|-------10---------10----|-------10----10----8----|-------|-------|-------|-------|
------------------------|------------------------|------------------------|-------|-------|-------|-------|
------------------------|------------------------|------------------------|-------|-------|-------|-------|


     S  S  S S  E   S  S  S S  S S  E.   S     S S  S S  E.   S  S S  S S  S  S  S  S  
|------------------------------------------|-------12---------------------------------|
|---10-12-13---13--12-10-12---13---15---13-|--15--------12---10-12---13---15-13-12----|
|*-----------------------------------------|---------------------------------------12-|
|*-----------------------------------------|------------------------------------------|
|------------------------------------------|------------------------------------------|
|------------------------------------------|------------------------------------------|


   S S  S  S  E   S  S  S S  S S  E.   S     S S  S S  E.   S  S S  S S  S S  S S  
----------13-12--10--------------10------|--10---12---13---12-13---16---17---19---|
--10---10-----------13-12---13--------13-|----------------------------------------|
-----9-----------------------------------|----------------------------------------|
-----------------------------------------|----------------------------------------|
-----------------------------------------|----------------------------------------|
-----------------------------------------|----------------------------------------|


   S S  S  S  S  S  S  S  E   S  S  S  S  S  S     S  S  S  S  S  S S  S  S  S  S  S  S  S  S  S  
--20------20-19-------19-17-----17-16-------16-|--17------------------17-------------------------|
-------17-------15-18--------17----------17----|-----17-18-16-17---------17-18-16-17----15-------|
--------------------------------------16-------|-----------------16------------------16----17-16-|
-----------------------------------------------|-------------------------------------------------|
-----------------------------------------------|-------------------------------------------------|
-----------------------------------------------|-------------------------------------------------|


   S S E  Q    Q    Q                    W                   W                   W                 
-------------------------|----|-------|--3----------------|--3----------------|--3----------------|
-------------------------|----|-------|--4----------------|--3----------------|--4----------------|
--14---------------------|----|-------|--5----------------|--5----------------|--5----------------|
-------------------------|----|-------|--5----------------|--5----------------|--5----------------|
-------------------------|----|-------|-------------------|-------------------|-------------------|
-------------------------|----|-------|-------------------|-------------------|-------------------|


  W                    Q     S  S  S  S  Q     S  S  S  S     S  S  S  S  S  S S  S  S  S  S  S  S  S  S  S  
--3----------------|--20----18----16-18-16-------------19-|--20------------------20-------------------------|
--6----------------|-----------18-------------20-15-20----|-----20-21-19-20---------20-21-19-20----18-------|
--5----------------|--------------------------------------|-----------------19------------------19----20-19-|
--5----------------|--------------------------------------|-------------------------------------------------|
-------------------|--------------------------------------|-------------------------------------------------|
-------------------|--------------------------------------|-------------------------------------------------|


  S  S  S  S  S  S  S  S  S  S  S  S  S  S  S  S     S S E  Q    Q    Q       H         H         
-------------------------------------------------|-------------------------|---------------------|
-------15----------------------------------------|-------------------------|-----------13--------|
----17----16-17-------17-16----------14----------|-------------------------|-----------14--------|
----------------17-18-------15-17-18----16-15----|-------------------------|-----------15--------|
----------------------------------------------17-|--18---------------------|---------------------|
-------------------------------------------------|-------------------------|---------------------|


   H         H            H         H            H         H           Q     Q     Q.      E   
----------------------|----------------------|----------------------|-------------------------|
--15------------------|--13------------------|----------------------|-------------------------|
--14--------15--------|--14--------14--------|--15--------12--------|---------------------14--|
--15--------14--------|--15--------12--------|--14--------10--------|-------12----15----------|
----------------------|----------------------|----------------------|-------------------------|
----------------------|----------------------|----------------------|-------------------------|


   Q.      E   E.   S  Q       Q     Q     Q.      E   
----------------------------|-------------13------12--|
----------------------------|-------11----------------|
--12------10--12---10-12----|-------10----------------|
----------------------------|-------------------------|
----------------------------|-------------------------|
----------------------------|-------------------------|


                                                             SH                                              
             |--3-| |--3--|  |--3--|  |--3--|  |--3--|                                                       
   E   E  E  S S  S S  S  S  S  S  S  S  S  S  S  S  S       E                                               
--10--10--8--5-8-10-8-10-12-10-12-13-12-13-15-13-15-18-|--<>13--|-----|-----|-----|-----|-----|-----|-------|
--11---------------------------------------------------|--------|-----|-----|-----|-----|-----|-----|-------|
-------------------------------------------------------|--------|-----|-----|-----|-----|-----|-----|-------|
-------------------------------------------------------|--------|-----|-----|-----|-----|-----|-----|-------|
-------------------------------------------------------|--------|-----|-----|-----|-----|-----|-----|-------|
-------------------------------------------------------|--------|-----|-----|-----|-----|-----|-----|-------|


   Q     Q     Q     Q        Q     Q     Q     E   E      Q     Q     Q     Q     
--16----16----16----16----|--16----16----16----16--17--|--16----16----16----16----|
--------15----14----12----|----------------------------|--------15----14----12----|
--------------------------|--14----13----11----13--14--|--------------------------|
--13----------------------|----------------------------|--13----------------------|
--------------------------|----------------------------|--------------------------|
--------------------------|----------------------------|--------------------------|


   Q     Q     Q     E   E      Q     Q     Q     Q        Q     Q     Q     E   E   
--16----16----16----16--17--|--16----16----16----16----|--16----16----16----16--17--|
----------------------------|--------15----14----12----|----------------------------|
--14----13----11----13--14--|--------------------------|--14----13----11----13--14--|
----------------------------|--13----------------------|----------------------------|
----------------------------|--------------------------|----------------------------|
----------------------------|--------------------------|----------------------------|


   Q     Q     Q     Q        Q     Q     Q     E   E     Q    Q    Q     E  T  T   T   T  
--16----16----16----16----|--16----16----16----16--17--|----------------------------------|
--------15----14----12----|----------------------------|----------------------------------|
---8----------------------|--14----13----11----13--14--|-----------------10--L-10h-11h-12-|
--------------------------|----------------------------|----------------------------------|
--------------------------|----------------------------|----------------------------------|
--------------------------|----------------------------|----------------------------------|


   H        Q     E  T  T   T   T     H        Q     E  T  T   T   T     H        Q     E  T  T   T   T  
--11------------------------------|--10------------------------------|----------------------------------|
----------------------------------|----------------------------------|--14------------------------------|
-----------------10--L-10h-11h-12-|-----------------10--L-10h-11h-12-|-----------------10--L-10h-11h-12-|
----------------------------------|----------------------------------|----------------------------------|
----------------------------------|----------------------------------|----------------------------------|
----------------------------------|----------------------------------|----------------------------------|


   H        Q     E  T  T   T   T     H        Q     E  T  T   T   T     H        Q     E  T  T   T   T  
----------------------------------|--11------------------------------|--10------------------------------|
--13------------------------------|----------------------------------|----------------------------------|
-----------------10--L-10h-11h-12-|-----------------10--L-10h-11h-12-|-----------------10--L-10h-11h-12-|
----------------------------------|----------------------------------|----------------------------------|
----------------------------------|----------------------------------|----------------------------------|
----------------------------------|----------------------------------|----------------------------------|


   H        Q    Q        Q     Q     Q     Q        Q     Q     Q     E   E      Q     Q     Q     Q     
----------------------|--19----19----19----19----|--19----19----19----19--20--|--19----19----19----19----|
--14------------------|--------18----17----15----|----------------------------|--------18----17----15----|
----------------------|--16----------------------|--17----16----14----16--17--|--16----------------------|
----------------------|--------------------------|----------------------------|--------------------------|
----------------------|--------------------------|----------------------------|--------------------------|
----------------------|--------------------------|----------------------------|--------------------------|


   Q     Q     Q     E   E      Q     Q     Q     Q        Q     Q     Q     E   E   
--19----19----19----19--20--|--19----19----19----19----|--19----19----19----19--20--|
----------------------------|--------18----17----15----|----------------------------|
--17----16----14----16--17--|--16----------------------|--17----16----14----16--17--|
----------------------------|--------------------------|----------------------------|
----------------------------|--------------------------|----------------------------|
----------------------------|--------------------------|----------------------------|


   Q     Q     Q     Q        Q     Q     Q     E   E     
--19----19----19----19----|--19----19----19----19--20---||
--------18----17----15----|-----------------------------||
--16----------------------|--17----16----14----16--17--*||
--------------------------|----------------------------*||
--------------------------|-----------------------------||
--------------------------|-----------------------------||


Rhythm!!

                             Q     Q    Q    Q       W                   W                 
E||-------|-------|-------|-----------------------|-------------------|-------------------|
B||-------|-------|-------|-----------------------|-------------------|-------------------|
G||-------|-------|-------|-----------------------|-------------------|-------------------|
D||-------|-------|-------|-------10----L----L----|--L----------------|--L----------------|
A||-------|-------|-------|-----------------------|-------------------|-------------------|
E||-------|-------|-------|-----------------------|-------------------|-------------------|


  W                                                                                                         
-------------------|-------|-------|-------|-------|-------|-------|-------|-------|-------|-------|-------|
-------------------|-------|-------|-------|-------|-------|-------|-------|-------|-------|-------|-------|
-------------------|-------|-------|-------|-------|-------|-------|-------|-------|-------|-------|-------|
--L----------------|-------|-------|-------|-------|-------|-------|-------|-------|-------|-------|-------|
-------------------|-------|-------|-------|-------|-------|-------|-------|-------|-------|-------|-------|
-------------------|-------|-------|-------|-------|-------|-------|-------|-------|-------|-------|-------|


          Q    Q    E  E  Q       E  E  Q    Q    Q       E  E  Q    E  E  Q       E  E  Q    Q    Q     
-------|-----------------------|-----------------------|------------------------|-----------------------|
-------|-------5----------5----|--------5----5----5----|--------5----------5----|--------5----5----5----|
-------|-------5----5-----5----|--5-----5----5----5----|--5-----5----5-----5----|--5-----5----5----5----|
-------|-------2----------2----|--------2----2----2----|--------2----------2----|--------2----2----2----|
-------|-----------------------|-----------------------|------------------------|-----------------------|
-------|-----------------------|-----------------------|------------------------|-----------------------|


  Q     Q     E  E   Q       Q     Q     Q     Q       Q     Q     E  E   Q       Q     Q     Q     Q     
--------------------------|-------------------------|--------------------------|-------------------------|
--------8-----------------|--------8-----------8----|--------8-----------------|--------8-----------8----|
--------8-----------------|--------8-----------8----|--------8-----------------|--------8-----------8----|
-------10----10-----10----|-------10----10----10----|-------10----10-----10----|-------10----10----10----|
--------------------10----|-------------10----------|--------------------10----|-------------10----------|
--------------------------|-------------------------|--------------------------|-------------------------|


                                    PM    PM    PM    PM       PM    PM    PM    PM     
                                    E  E  E  E  E  E  E  E     E  E  E  E  E  E  E  E   
-------|-------|-------|-------||---------------------------|--------------------------|
-------|-------|-------|-------||---------------------------|--------------------------|
-------|-------|-------|-------||*--------5-----------------|--------5-----------5-----|
-------|-------|-------|-------||*--7-----5-----7-----5-----|--7-----5-----7-----5-----|
-------|-------|-------|-------||---7-----3-----7-----5-----|--7-----3-----7-----3-----|
-------|-------|-------|-------||---------------------------|--------------------------|


  PM    PM    PM    PM       PM    PM    PM    PM       PM    PM    PM    PM       PM    PM    PM    PM     
  E  E  E  E  E  E  E  E     E  E  E  E  E  E  E  E     E  E  E  E  E  E  E  E     E  E  E  E  E  E  E  E   
--------------------------|--------------------------|--------------------------|--------------------------|
--------------------------|--------------------------|--------------------------|--------------------------|
--------5-----------------|--------5-----------5-----|--------5-----------------|--------5-----------5-----|
--7-----5-----7-----5-----|--7-----5-----7-----5-----|--7-----5-----7-----5-----|--7-----5-----7-----5-----|
--7-----3-----7-----5-----|--7-----3-----7-----3-----|--7-----3-----7-----5-----|--7-----3-----7-----3-----|
--------------------------|--------------------------|--------------------------|--------------------------|


  PM    PM    PM    PM                                                                                   
  E  E  E  E  E  E  E  E     E  E  E  E  E  E  E  E     E  E  E  E  E  E  E  E                           
--------------------------|--------------------------|--------------------------|-----|-----|-----|-----|
--------------------------|--------8-----------8-----|--------8-----------8-----|-----|-----|-----|-----|
--------5-----------------|--9-----5-----9-----5-----|--9-----5-----9-----5-----|-----|-----|-----|-----|
--7-----5-----7-----5-----|--7-----5-----7-----5-----|--7-----5-----7-----5-----|-----|-----|-----|-----|
--7-----3-----7-----5-----|--7-----------7-----------|--7-----------7-----------|-----|-----|-----|-----|
--------------------------|--------------------------|--------------------------|-----|-----|-----|-----|


                          E  E  E  E  E  E  E  E     E  E   E  E  E  E  E  E     E  E   E  E  E  E  E  E   
-----|-----|-----|-----|--------------------------|---------------------------|---------------------------|
-----|-----|-----|-----|--------------------------|---------------------------|---------------------------|
-----|-----|-----|-----|--------------------7-----|--------10-----------9-----|--------10-----------7-----|
-----|-----|-----|-----|--------------------7-----|--------10-----------9-----|--------10-----------7-----|
-----|-----|-----|-----|--------------------5-----|---------8-----------7-----|---------8-----------5-----|
-----|-----|-----|-----|--------------------------|---------------------------|---------------------------|


  E  E   E  E  E  E  E  E     W                   H.           Q       W                   H.           Q     
---------------------------|-------------------|--------------------|-------------------|--------------------|
---------------------------|-------------------|--------------------|-------------------|--------------------|
--------10-----------5-----|--3----------------|--L------------5----|--7----------------|--L------------9----|
--------10-----------5-----|--3----------------|--L------------5----|--7----------------|--L------------9----|
---------8-----------3-----|--1----------------|--L------------3----|--5----------------|--L------------7----|
---------------------------|-------------------|--------------------|-------------------|--------------------|


   E  E  Q    Q    Q                         H.           Q        H.            Q        H.            Q     
------------------------|-----|-----|-----|--------------------|----------------------|----------------------|
------------------------|-----|-----|-----|--------------------|----------------------|----------------------|
--10--------------------|-----|-----|-----|--7------------9----|--10------------12----|--13------------15----|
--10--------------------|-----|-----|-----|--7------------9----|--10------------12----|--13------------15----|
---8--------------------|-----|-----|-----|--5------------7----|---8------------10----|--11------------13----|
------------------------|-----|-----|-----|--5------------7----|---8------------10----|--11------------13----|


   W                   H        H           W                   H        H           W                 
--------------------|--------------------|-------------------|--------------------|-------------------|
--------------------|--------------------|-------------------|--------------------|-------------------|
--14----------------|--------------------|-------------------|--------------------|-------------------|
--14----------------|-----------6--------|--L----------------|-----------6--------|--L----------------|
--12----------------|-----------6--------|--L----------------|-----------6--------|--L----------------|
--12----------------|-----------4--------|--L----------------|-----------4--------|--L----------------|


  H        H           W                   H        H           W                                     
--------------------|-------------------|--------------------|-------------------|-------------------|
--------------------|-------------------|--------------------|-------------------|-------------------|
--------------------|-------------------|--------------------|-------------------|-------------------|
-----------6--------|--L----------------|-----------6--------|--L----------------|-------------------|
-----------6--------|--L----------------|-----------6--------|--L----------------|-------------------|
-----------4--------|--L----------------|-----------4--------|--L----------------|-------------------|


                                                              W                   W                 
-------------------|-------------------|-------------------|-------------------|-------------------|
-------------------|-------------------|-------------------|-------------------|-------------------|
-------------------|-------------------|-------------------|-------------------|-------------------|
-------------------|-------------------|-------------------|--3----------------|--3----------------|
-------------------|-------------------|-------------------|--3----------------|--3----------------|
-------------------|-------------------|-------------------|--1----------------|--1----------------|


  W                   W                                                                             
-------------------|-------------------|-------------------|-------------------|-------------------|
-------------------|-------------------|-------------------|-------------------|-------------------|
-------------------|-------------------|-------------------|-------------------|-------------------|
--3----------------|--3----------------|-------------------|-------------------|-------------------|
--3----------------|--3----------------|-------------------|-------------------|-------------------|
--1----------------|--1----------------|-------------------|-------------------|-------------------|


                      H        H           H        H           H        H           H        H           
-------------------|--7--------7--------|--7--------7--------|--7--------7--------|--7--------7---------||
-------------------|--------------------|--------------------|--------------------|---------------------||
-------------------|--------------------|--------------------|--------------------|--------------------*||
-------------------|--------------------|--------------------|--------------------|--------------------*||
-------------------|--------------------|--------------------|--------------------|---------------------||
-------------------|--------------------|--------------------|--------------------|---------------------||


Drone

     H        E.  Q    S    H        H           E.  H        Q    S    W                   W                 
E||----------------------|--------------------|----------------------|-------------------|-------------------|
B||----------------------|--------------------|----------------------|-------------------|-------------------|
G||----------------------|--------------------|----------------------|-------------------|-------------------|
D||----------------------|--------------------|----------------------|--6----------------|--L----------------|
A||----------------------|--------------------|--6---7--------L----L-|--6----------------|--L----------------|
E||--5--------6---7----L-|--L--------8--------|----------------------|--4----------------|--L----------------|


  W                   W                   E  E  E  E  E  E  E  E     E  E  E  E  E  E  E  E   
-------------------|-------------------|--------------------------|--------------------------|
-------------------|-------------------|--------------------------|--------------------------|
-------------------|-------------------|--------------------------|--------------------------|
--L----------------|--L----------------|--------------------------|--------------------------|
--L----------------|--L----------------|--------------------------|--------------------------|
--L----------------|--L----------------|--5--5--5--5--5--5--5--5--|--5--5--5--5--5--5--5--5--|


  E  E  E  E  E  E  E  E     E  E  E  E  E  E  E  E     E  E  E  E  E  E  E  E     E  E  E  E  E  E  E  E   
--------------------------|--------------------------|--------------------------|--------------------------|
--------------------------|--------------------------|--------------------------|--------------------------|
--------------------------|--------------------------|--------------------------|--------------------------|
--------------------------|--------------------------|--------------------------|--------------------------|
--------------------------|--------------------------|--------------------------|--------------------------|
--5--5--5--5--5--5--5--5--|--5--5--5--5--5--5--5--5--|--5--5--5--5--5--5--5--5--|--5--5--5--5--5--5--5--5--|


  E  E  E  E  E  E  E  E     E  E  E  E  E  E  E  E     E  E  E  E  E  E  E  E     E  E  E  E  E  E  E  E   
--------------------------|--------------------------|--------------------------|--------------------------|
--------------------------|--------------------------|--------------------------|--------------------------|
--------------------------|--------------------------|--------------------------|--------------------------|
--------------------------|--------------------------|--------------------------|--------------------------|
--------------------------|--------------------------|--------------------------|--------------------------|
--5--5--5--5--5--5--5--5--|--5--5--5--5--5--5--5--5--|--8--8--8--8--8--8--8--8--|--8--8--8--8--8--8--8--8--|


  E  E  E  E  E  E  E  E     E  E  E  E  E  E  S E.     E  E  E  E  E  E  E  E     E  E  E  E  E  E  E  E   
--------------------------|--------------------------|--------------------------|--------------------------|
--------------------------|--------------------------|--------------------------|--------------------------|
--------------------------|--------------------------|--------------------------|--------------------------|
--------------------------|--------------------------|--------------------------|--------------------------|
--------------------------|--------------------------|--------------------------|--------------------------|
--8--8--8--8--8--8--8--8--|--8--8--8--8--8--8--8-6---|--5--5--5--5--5--5--5--5--|--5--5--5--5--5--5--5--5--|


  E  E  E  E  E  E  E  E     E  E  E  E  E  E  E  E     E  E  E  E  E  E  E  E     E  E  E  E  E  E  E  E   
--------------------------|--------------------------|--------------------------|--------------------------|
--------------------------|--------------------------|--------------------------|--------------------------|
--------------------------|--------------------------|--------------------------|--------------------------|
--------------------------|--------------------------|--------------------------|--------------------------|
--------------------------|--------------------------|--------------------------|--------------------------|
--5--5--5--5--5--5--5--5--|--5--5--5--5--5--5--5--5--|--8--8--8--8--8--8--8--8--|--8--8--8--8--8--8--8--8--|


  E  E  E  E  E  E  E  E     E  E  E  E  E  E  S E.     E  E  E  E  E  E  E  E     E  E  E  E  E  E  E  E   
--------------------------|--------------------------|--------------------------|--------------------------|
--------------------------|--------------------------|--------------------------|--------------------------|
--------------------------|--------------------------|--------------------------|--------------------------|
--------------------------|--------------------------|--------------------------|--------------------------|
--------------------------|--------------------------|--------------------------|--------------------------|
--8--8--8--8--8--8--8--8--|--8--8--8--8--8--8--8-6---|--5--5--5--5--5--5--5--5--|--5--5--5--5--5--5--5--5--|


  E  E  E  E  E  E  E  E     E  E  E  E  E  E  E  E       E  E  E  E  E  E  E  E     E  E  E  E  E  E  E  E   
--------------------------|--------------------------||---------------------------|--------------------------|
--------------------------|--------------------------||---------------------------|--------------------------|
--------------------------|--------------------------||*--------------------------|--------------------------|
--------------------------|--------------------------||*--------------------------|--------------------------|
--------------------------|--------------------------||---------------------------|--------------------------|
--5--5--5--5--5--5--5--5--|--5--5--5--5--5--5--5--5--||---5--5--5--5--5--5--5--5--|--5--5--5--5--5--5--5--5--|


  E  E  E  E  E  E  E  E     E  E  E  E  E  E  E  E     E  E  E  E  E  E  E  E     E  E  E  E  E  E  E  E   
--------------------------|--------------------------|--------------------------|--------------------------|
--------------------------|--------------------------|--------------------------|--------------------------|
--------------------------|--------------------------|--------------------------|--------------------------|
--------------------------|--------------------------|--------------------------|--------------------------|
--------------------------|--------------------------|--------------------------|--------------------------|
--5--5--5--5--5--5--5--5--|--5--5--5--5--5--5--5--5--|--5--5--5--5--5--5--5--5--|--5--5--5--5--5--5--5--5--|


  E  E  E  E  E  E  E  E     E  E  E  E  E  E  E  E     E  E  E  E  E  E  E  E     E  E  E  E  E  E  E  E   
--------------------------|--------------------------|--------------------------|--------------------------|
--------------------------|--------------------------|--------------------------|--------------------------|
--------------------------|--------------------------|--------------------------|--------------------------|
--------------------------|--------------------------|--------------------------|--------------------------|
--------------------------|--------------------------|--------------------------|--------------------------|
--5--5--5--5--5--5--5--5--|--5--5--5--5--5--5--5--5--|--5--5--5--5--5--5--5--5--|--8--8--8--8--8--8--8--8--|


  E  E  E  E  E  E  E  E     E  E  E  E  E  E  E  E     E  E  E  E  E  E  E  E     E  E  E  E  E  E  E  E   
--------------------------|--------------------------|--------------------------|--------------------------|
--------------------------|--------------------------|--------------------------|--------------------------|
--------------------------|--------------------------|--------------------------|--------------------------|
--------------------------|--------------------------|--------------------------|--------------------------|
--------------------------|--------------------------|--------------------------|--------------------------|
--8--8--8--8--8--8--8--8--|--8--8--8--8--8--8--8--8--|--8--8--8--8--8--8--8--8--|--8--8--8--8--8--8--8--8--|


  E  E  E  E  E  E  E  E     E  E  E  E  E  E  E  E     E  E  E  E  E  E  E  E     E  E  E  E  E  E  E  E   
--------------------------|--------------------------|--------------------------|--------------------------|
--------------------------|--------------------------|--------------------------|--------------------------|
--------------------------|--------------------------|--------------------------|--------------------------|
--------------------------|--------------------------|--------------------------|--------------------------|
--------------------------|--------------------------|--------------------------|--5--5--5--5--5--5--5--5--|
--8--8--8--8--8--8--8--8--|--8--8--8--8--8--8--8--8--|--8--8--8--8--8--8--8--8--|--------------------------|


  E  E  E  E  E  E  E  E     E  E  E  E  E  E  E  E     E  E  E  E  E  E  E  E     E  E  E  E  E  E  E  E   
--------------------------|--------------------------|--------------------------|--------------------------|
--------------------------|--------------------------|--------------------------|--------------------------|
--------------------------|--------------------------|--------------------------|--------------------------|
--------------------------|--------------------------|--------------------------|--------------------------|
--5--5--5--5--5--5--5--5--|--5--5--5--5--5--5--5--5--|--5--5--5--5--5--5--5--5--|--------------------------|
--------------------------|--------------------------|--------------------------|--6--6--6--6--6--6--6--6--|


  E  E  E  E  E  E  E  E     E  E  E  E  E  E  E  E     E  E  E  E  E  E  E  E     E  E  E  E  E  E  E  E   
--------------------------|--------------------------|--------------------------|--------------------------|
--------------------------|--------------------------|--------------------------|--------------------------|
--------------------------|--------------------------|--------------------------|--------------------------|
--------------------------|--------------------------|--------------------------|--------------------------|
--------------------------|--------------------------|--------------------------|--5--5--5--5--5--5--5--5--|
--6--6--6--6--6--6--6--6--|--6--6--6--6--6--6--6--6--|--6--6--6--6--6--6--6--6--|--------------------------|


  E  E  E  E  E  E  E  E     E  E  E  E  E  E  E  E     E  E  E  E  E  E  E  E     E  E  E  E  E  E  E  E   
--------------------------|--------------------------|--------------------------|--------------------------|
--------------------------|--------------------------|--------------------------|--------------------------|
--------------------------|--------------------------|--------------------------|--------------------------|
--------------------------|--------------------------|--------------------------|--------------------------|
--5--5--5--5--5--5--5--5--|--5--5--5--5--5--5--5--5--|--5--5--5--5--5--5--5--5--|--5--5--5--5--5--5--5--5--|
--------------------------|--------------------------|--------------------------|--------------------------|


  E  E  E  E  E  E  E  E     E  E  E  E  E  E  E  E     E  E  E  E  E  E  E  E     E  E  E  E  E  E  E  E   
--------------------------|--------------------------|--------------------------|--------------------------|
--------------------------|--------------------------|--------------------------|--------------------------|
--------------------------|--------------------------|--------------------------|--------------------------|
--------------------------|--------------------------|--------------------------|--------------------------|
--5--5--5--5--5--5--5--5--|--5--5--5--5--5--5--5--5--|--5--5--5--5--5--5--5--5--|--------------------------|
--------------------------|--------------------------|--------------------------|--4--4--4--4--4--4--4--4--|


  E  E  E  E  E  E  E  E     E  E  E  E  E  E  E  E     E  E  E  E  E  E  E  E     E  E  E  E  E  E  E  E   
--------------------------|--------------------------|--------------------------|--------------------------|
--------------------------|--------------------------|--------------------------|--------------------------|
--------------------------|--------------------------|--------------------------|--------------------------|
--------------------------|--------------------------|--------------------------|--------------------------|
--------------------------|--------------------------|--------------------------|--------------------------|
--4--4--4--4--4--4--4--3--|--4--4--4--4--4--4--4--4--|--4--4--4--4--4--4--4--3--|--4--4--4--4--4--4--4--4--|


  E  E  E  E  E  E  E  E     E  E  E  E  E  E  E  E     E  E  E  E  E  E  E  E     E  E  E  E  E  E  E  E   
--------------------------|--------------------------|--------------------------|--------------------------|
--------------------------|--------------------------|--------------------------|--------------------------|
--------------------------|--------------------------|--------------------------|--------------------------|
--------------------------|--------------------------|--------------------------|--3--3--3--3--3--3--3--3--|
--------------------------|--------------------------|--------------------------|--------------------------|
--4--4--4--4--4--4--4--3--|--4--4--4--4--4--4--4--4--|--4--4--4--4--4--4--4--3--|--------------------------|


  E  E  E  E  E  E  E  E     E  E  E  E  E  E  E  E     E  E  E  E  E  E  E  E     E  E  E  E  E  E  E  E   
--------------------------|--------------------------|--------------------------|--------------------------|
--------------------------|--------------------------|--------------------------|--------------------------|
--------------------------|--------------------------|--------------------------|--------------------------|
--3--3--3--3--3--3--3--3--|--3--3--3--3--3--3--3--3--|--3--3--3--3--3--3--3--3--|--3--3--3--3--3--3--3--3--|
--------------------------|--------------------------|--------------------------|--------------------------|
--------------------------|--------------------------|--------------------------|--------------------------|


  E  E  E  E  E  E  E  E     E  E  E  E  E  E  E  E     E  E  E  E  E  E  E  E     E  E  E  E  E  E  E  E   
--------------------------|--------------------------|--------------------------|--------------------------|
--------------------------|--------------------------|--------------------------|--------------------------|
--------------------------|--------------------------|--------------------------|--------------------------|
--3--3--3--3--3--3--3--3--|--3--3--3--3--3--3--3--3--|--3--3--3--3--3--3--3--3--|--------------------------|
--------------------------|--------------------------|--------------------------|--2--2--2--2--2--2--2--2--|
--------------------------|--------------------------|--------------------------|--------------------------|


  E  E  E  E  E  E  E  E     E  E  E  E  E  E  E  E     E  E  E  E  E  E  E  E     E  E  E  E  E  E  E  E   
--------------------------|--------------------------|--------------------------|--------------------------|
--------------------------|--------------------------|--------------------------|--------------------------|
--------------------------|--------------------------|--------------------------|--------------------------|
--------------------------|--------------------------|--------------------------|--------------------------|
--2--2--2--2--2--2--2--1--|--2--2--2--2--2--2--2--2--|--2--2--2--2--2--2--2--1--|--2--2--2--2--2--2--2--2--|
--------------------------|--------------------------|--------------------------|--------------------------|


  E  E  E  E  E  E  E  E     E  E  E  E  E  E  E  E     E  E  E  E  E  E  E  E     
--------------------------|--------------------------|---------------------------||
--------------------------|--------------------------|---------------------------||
--------------------------|--------------------------|--------------------------*||
--------------------------|--------------------------|--------------------------*||
--2--2--2--2--2--2--2--1--|--2--2--2--2--2--2--2--2--|--2--2--2--2--2--2--2--1---||
--------------------------|--------------------------|---------------------------||


Bass!!

                                                             E  E  E  E  E  E  E  E   
G||-------|-------|-------|-------|-------|-------|-------|--------------------------|
D||-------|-------|-------|-------|-------|-------|-------|--------------------------|
A||-------|-------|-------|-------|-------|-------|-------|--------------------------|
E||-------|-------|-------|-------|-------|-------|-------|--5--5--5--5--5--5--5--5--|


  E  E  E  E  E  E  E  E     E  E  E  E  E  E  E  E     E  E  E  E  E  E  E  E     E  E  E  E  E  E  E  E   
--------------------------|--------------------------|--------------------------|--------------------------|
--------------------------|--------------------------|--------------------------|--------------------------|
--------------------------|--------------------------|--------------------------|--------------------------|
--5--5--5--5--5--5--5--5--|--5--5--5--5--5--5--5--5--|--5--5--5--5--5--5--5--5--|--5--5--5--5--5--5--5--5--|


  E  E  E  E  E  E  E  E     E  E  E  E  E  E  E  E     E  E  E  E  E  E  E  E     E  E  E  E  E  E  E  E   
--------------------------|--------------------------|--------------------------|--------------------------|
--------------------------|--------------------------|--------------------------|--------------------------|
--------------------------|--------------------------|--------------------------|--------------------------|
--5--5--5--5--5--5--5--5--|--5--5--5--5--5--5--5--5--|--5--5--5--5--5--5--5--5--|--8--8--8--8--8--8--8--8--|


  E  E  E  E  E  E  E  E     E  E  E  E  E  E  E  E     E  E  E  E  E  E  S E.     E  E  E  E  E  E  E  E   
--------------------------|--------------------------|--------------------------|--------------------------|
--------------------------|--------------------------|--------------------------|--------------------------|
--------------------------|--------------------------|--------------------------|--------------------------|
--8--8--8--8--8--8--8--8--|--8--8--8--8--8--8--8--8--|--8--8--8--8--8--8--8-6---|--5--5--5--5--5--5--5--5--|


  E  E  E  E  E  E  E  E     E  E  E  E  E  E  E  E     E  E  E  E  E  E  E  E     E  E  E  E  E  E  E  E   
--------------------------|--------------------------|--------------------------|--------------------------|
--------------------------|--------------------------|--------------------------|--------------------------|
--------------------------|--------------------------|--------------------------|--------------------------|
--5--5--5--5--5--5--5--5--|--5--5--5--5--5--5--5--5--|--5--5--5--5--5--5--5--5--|--8--8--8--8--8--8--8--8--|


  E  E  E  E  E  E  E  E     E  E  E  E  E  E  E  E     E  E  E  E  E  E  S E.     E  E  E  E  E  E  E  E   
--------------------------|--------------------------|--------------------------|--------------------------|
--------------------------|--------------------------|--------------------------|--------------------------|
--------------------------|--------------------------|--------------------------|--------------------------|
--8--8--8--8--8--8--8--8--|--8--8--8--8--8--8--8--8--|--8--8--8--8--8--8--8-6---|--5--5--5--5--5--5--5--5--|


  E  E  E  E  E  E  E  E     E  E  E  E  E  E  E  E     E  E  E  E  E  E  E  E       E  E  E  E  E  E  E  E   
--------------------------|--------------------------|--------------------------||---------------------------|
--------------------------|--------------------------|--------------------------||*--------------------------|
--------------------------|--------------------------|--------------------------||*--------------------------|
--5--5--5--5--5--5--5--5--|--5--5--5--5--5--5--5--5--|--5--5--5--5--5--5--5--5--||---5--5--5--5--5--5--5--5--|


  E  E  E  E  E  E  E  E     E  E  E  E  E  E  E  E     E  E  E  E  E  E  E  E     E  E  E  E  E  E  E  E   
--------------------------|--------------------------|--------------------------|--------------------------|
--------------------------|--------------------------|--------------------------|--------------------------|
--------------------------|--------------------------|--------------------------|--------------------------|
--5--5--5--5--5--5--5--5--|--5--5--5--5--5--5--5--5--|--5--5--5--5--5--5--5--5--|--5--5--5--5--5--5--5--5--|


  E  E  E  E  E  E  E  E     E  E  E  E  E  E  E  E     E  E  E  E  E  E  E  E     E  E  E  E  E  E  E  E   
--------------------------|--------------------------|--------------------------|--------------------------|
--------------------------|--------------------------|--------------------------|--------------------------|
--------------------------|--------------------------|--------------------------|--------------------------|
--5--5--5--5--5--5--5--5--|--5--5--5--5--5--5--5--5--|--5--5--5--5--5--5--5--5--|--5--5--5--5--5--5--5--5--|


  E  E  E  E  E  E  E  E     E  E  E  E  E  E  E  E     E  E  E  E  E  E  E  E     E  E  E  E  E  E  E  E   
--------------------------|--------------------------|--------------------------|--------------------------|
--------------------------|--------------------------|--------------------------|--------------------------|
--------------------------|--------------------------|--------------------------|--------------------------|
--8--8--8--8--8--8--8--8--|--8--8--8--8--8--8--8--8--|--8--8--8--8--8--8--8--8--|--8--8--8--8--8--8--8--8--|


  E  E  E  E  E  E  E  E     E  E  E  E  E  E  E  E     E  E  E  E  E  E  E  E     E  E  E  E  E  E  E  E   
--------------------------|--------------------------|--------------------------|--------------------------|
--------------------------|--------------------------|--------------------------|--------------------------|
--------------------------|--------------------------|--------------------------|--------------------------|
--8--8--8--8--8--8--8--8--|--8--8--8--8--8--8--8--8--|--8--8--8--8--8--8--8--8--|--8--8--8--8--8--8--8--8--|


  E  E  E  E  E  E  E  E     E  E  E  E  E  E  E  E     E  E  E  E  E  E  E  E     E  E  E  E  E  E  E  E   
--------------------------|--------------------------|--------------------------|--------------------------|
--------------------------|--------------------------|--------------------------|--------------------------|
--5--5--5--5--5--5--5--5--|--5--5--5--5--5--5--5--5--|--5--5--5--5--5--5--5--5--|--5--5--5--5--5--5--5--5--|
--------------------------|--------------------------|--------------------------|--------------------------|


  E  E  E  E  E  E  E  E     E  E  E  E  E  E  E  E     E  E  E  E  E  E  E  E     E  E  E  E  E  E  E  E   
--------------------------|--------------------------|--------------------------|--------------------------|
--------------------------|--------------------------|--------------------------|--------------------------|
--------------------------|--------------------------|--------------------------|--------------------------|
--6--6--6--6--6--6--6--6--|--6--6--6--6--6--6--6--6--|--6--6--6--6--6--6--6--6--|--6--6--6--6--6--6--6--6--|


  E  E  E  E  E  E  E  E     E  E  E  E  E  E  E  E     E  E  E  E  E  E  E  E     E  E  E  E  E  E  E  E   
--------------------------|--------------------------|--------------------------|--------------------------|
--------------------------|--------------------------|--------------------------|--------------------------|
--5--5--5--5--5--5--5--5--|--5--5--5--5--5--5--5--5--|--5--5--5--5--5--5--5--5--|--5--5--5--5--5--5--5--5--|
--------------------------|--------------------------|--------------------------|--------------------------|


  E  E  E  E  E  E  E  E     E  E  E  E  E  E  E  E     E  E  E  E  E  E  E  E     E  E  E  E  E  E  E  E   
--------------------------|--------------------------|--------------------------|--------------------------|
--------------------------|--------------------------|--------------------------|--------------------------|
--5--5--5--5--5--5--5--5--|--5--5--5--5--5--5--5--5--|--5--5--5--5--5--5--5--5--|--5--5--5--5--5--5--5--5--|
--------------------------|--------------------------|--------------------------|--------------------------|


  E  E  E  E  E  E  E  E     E  E  E  E  E  E  E  E     E  E  E  E  E  E  E  E     E  E  E  E  E  E  E  E   
--------------------------|--------------------------|--------------------------|--------------------------|
--------------------------|--------------------------|--------------------------|--------------------------|
--------------------------|--------------------------|--------------------------|--------------------------|
--4--4--4--4--4--4--4--4--|--4--4--4--4--4--4--4--3--|--4--4--4--4--4--4--4--4--|--4--4--4--4--4--4--4--3--|


  E  E  E  E  E  E  E  E     E  E  E  E  E  E  E  E     E  E  E  E  E  E  E  E     E  E  E  E  E  E  E  E   
--------------------------|--------------------------|--------------------------|--------------------------|
--------------------------|--------------------------|--------------------------|--------------------------|
--------------------------|--------------------------|--------------------------|--------------------------|
--4--4--4--4--4--4--4--4--|--4--4--4--4--4--4--4--3--|--4--4--4--4--4--4--4--4--|--4--4--4--4--4--4--4--3--|


  E  E  E  E  E  E  E  E     E  E  E  E  E  E  E  E     E  E  E  E  E  E  E  E     E  E  E  E  E  E  E  E   
--------------------------|--------------------------|--------------------------|--------------------------|
--3--3--3--3--3--3--3--3--|--3--3--3--3--3--3--3--3--|--3--3--3--3--3--3--3--3--|--3--3--3--3--3--3--3--3--|
--------------------------|--------------------------|--------------------------|--------------------------|
--------------------------|--------------------------|--------------------------|--------------------------|


  E  E  E  E  E  E  E  E     E  E  E  E  E  E  E  E     E  E  E  E  E  E  E  E     E  E  E  E  E  E  E  E   
--------------------------|--------------------------|--------------------------|--------------------------|
--3--3--3--3--3--3--3--3--|--3--3--3--3--3--3--3--3--|--3--3--3--3--3--3--3--3--|--3--3--3--3--3--3--3--3--|
--------------------------|--------------------------|--------------------------|--------------------------|
--------------------------|--------------------------|--------------------------|--------------------------|


  E  E  E  E  E  E  E  E     E  E  E  E  E  E  E  E     E  E  E  E  E  E  E  E     E  E  E  E  E  E  E  E   
--------------------------|--------------------------|--------------------------|--------------------------|
--------------------------|--------------------------|--------------------------|--------------------------|
--2--2--2--2--2--2--2--2--|--2--2--2--2--2--2--2--1--|--2--2--2--2--2--2--2--2--|--2--2--2--2--2--2--2--1--|
--------------------------|--------------------------|--------------------------|--------------------------|


  E  E  E  E  E  E  E  E     E  E  E  E  E  E  E  E     E  E  E  E  E  E  E  E     E  E  E  E  E  E  E  E     
--------------------------|--------------------------|--------------------------|---------------------------||
--------------------------|--------------------------|--------------------------|--------------------------*||
--2--2--2--2--2--2--2--2--|--2--2--2--2--2--2--2--1--|--2--2--2--2--2--2--2--2--|--2--2--2--2--2--2--2--1--*||
--------------------------|--------------------------|--------------------------|---------------------------||




Duration Legend
---------------
W - whole
H - half
Q - quarter
E - 8th
S - 16th
T - 32nd
. - note dotted
|-n-|  - n-tuplets


Tablature Legend
----------------
L - tied note
x - dead note
g - grace note
SH - semi harmonic
PH - pitch harmonic
h - hammer on
p - pull off
b - bend
br - bendRelease
pb - preBend
pbr - preBendRelease
brb - bendReleaseBend
~ - vibrato
W - wide vibrato
Login or Register to remove this ad.