The Landing (Final Fantasy VIII) Bass/Guitar Tab

Submitted: Nov 04, 2011 by Jacob31593 (Last updated: May 25, 2012)

5
Average: 5 (4 votes)
Download | Listen
Game: Final Fantasy VIII
Composer(s): Nobuo Uematsu
Style: 2 or more instruments, Alternate picking, Arrangement, Artificial harmonics, Pinch harmonics, Transcription
Series: Final Fantasy

AutoScroll: Slow | Medium | Fast

The Landing from Final Fantasy VIII
Composed by Nobuo Uematsu
Tabbed by Jacob31593
November 4th 2011

107~ BPM

This probably sucks more than I realize, but I've been wanting to do this song since time began.

Lead

                                                                        W                     H          H          
E||-------|-------|-------|-------|-------|-------|-------|-------|-----------------------|------------------------|
B||-------|-------|-------|-------|-------|-------|-------|-------|-----------------------|------------------------|
G||-------|-------|-------|-------|-------|-------|-------|-------|--9g12~----------------|--11~--------12~--------|
D||-------|-------|-------|-------|-------|-------|-------|-------|-----------------------|------------------------|
A||-------|-------|-------|-------|-------|-------|-------|-------|-----------------------|------------------------|
E||-------|-------|-------|-------|-------|-------|-------|-------|-----------------------|------------------------|


   H         H            W                   E                               W                    H         H         
-----------------------|-------------------|------|-------|-------|-------|--12----------------|--10------------------|
-----------------------|-------------------|------|-------|-------|-------|--------------------|------------13--------|
-----------------------|-------------------|------|-------|-------|-------|--------------------|----------------------|
--14~--------9~--------|--L----------------|--L\--|-------|-------|-------|--------------------|----------------------|
-----------------------|-------------------|------|-------|-------|-------|--------------------|----------------------|
-----------------------|-------------------|------|-------|-------|-------|--------------------|----------------------|


   W                   H        Q    Q                                                                               
--------------------|---------------------|-------|-------|-------|-------|-------|-------||--------|-------|-------|
--12----------------|--L--------L---------|-------|-------|-------|-------|-------|-------||--------|-------|-------|
--------------------|---------------------|-------|-------|-------|-------|-------|-------||*-------|-------|-------|
--------------------|---------------------|-------|-------|-------|-------|-------|-------||*-------|-------|-------|
--------------------|---------------------|-------|-------|-------|-------|-------|-------||--------|-------|-------|
--------------------|---------------------|-------|-------|-------|-------|-------|-------||--------|-------|-------|


                           H         Q       Q.      E   E   E         H         Q        H         Q      
-------|-------|-------|------------------|---------------------|---------------------|-------------------|
-------|-------|-------|------------------|---------------------|---------------------|-------------------|
-------|-------|-------|--12---------L----|--L------------------|---------------------|-------------------|
-------|-------|-------|--12---------L----|--L------13--12--10--|---------------------|-------------------|
-------|-------|-------|--10---------L----|--L------------------|--12g13~--------L----|--12~--------L\----|
-------|-------|-------|------------------|---------------------|---------------------|-------------------|


   H         Q       Q.      E   E   E         H         Q        H          Q        S S S  S S  S  E   E   E   
------------------|---------------------|---------------------|-------------------|--------------13-15--13--15--|
------------------|---------------------|---------------------|-------------------|--15-----17------------------|
--12---------L----|--L------------------|---------------------|-------------------|-----------------------------|
--12---------L----|--L------13--12--10--|---------------------|-------------------|-----------------------------|
--10---------L----|--L------------------|--12g13~--------L----|---L\~-------------|-----------------------------|
------------------|---------------------|---------------------|-------------------|-----------------------------|


   S S S  S S  S  E   E   E         H.               H.               S S S  S S  S  E   E   E   
--17-----15---13-----13------|--------------------|---------------|---------15---16-18--16--18--|
-----------------17------13--|--13g15~------------|--L------------|--18-------------------------|
-----------------------------|--------------------|---------------|-----------------------------|
-----------------------------|--------------------|---------------|-----------------------------|
-----------------------------|--------------------|---------------|-----------------------------|
-----------------------------|--------------------|---------------|-----------------------------|


   S S S  S S  S  E   E   E         W                                                                              
--20-----18---16-15--16------|------------------------|-----|-----|-----|-----|-----|-----|-----|-----|-----|-----|
-------------------------16--|--16g18~----------------|-----|-----|-----|-----|-----|-----|-----|-----|-----|-----|
-----------------------------|------------------------|-----|-----|-----|-----|-----|-----|-----|-----|-----|-----|
-----------------------------|------------------------|-----|-----|-----|-----|-----|-----|-----|-----|-----|-----|
-----------------------------|------------------------|-----|-----|-----|-----|-----|-----|-----|-----|-----|-----|
-----------------------------|------------------------|-----|-----|-----|-----|-----|-----|-----|-----|-----|-----|


               E.   Q.     E.      E.   Q.     E.         E   E   E   E   E   E      Q.      Q.         Q.      Q.      
-----|-----|--19---17------L---|--15---------------|-------------------------15--|------------------|------------------|
-----|-----|-------------------|-------19------L---|--15g17--15------15--17------|--18------18------|--17------18------|
-----|-----|-------------------|-------------------|-------------18--------------|------------------|------------------|
-----|-----|-------------------|-------------------|-----------------------------|------------------|------------------|
-----|-----|-------------------|-------------------|-----------------------------|------------------|------------------|
-----|-----|-------------------|-------------------|-----------------------------|------------------|------------------|


   W                                                                                                                 
   Q.      Q.         Q.      Q.         Q.      Q.            Q.      Q.         Q.      Q.         Q.      Q.      
--15------15------|------------------|--15--------------|--15g17------15------|----------15------|------------------|
------------------|--17------18------|----------18------|---------------------|--18--------------|--17------18------|
------------------|------------------|------------------|---------------------|------------------|------------------|
------------------|------------------|------------------|---------------------|------------------|------------------|
------------------|------------------|------------------|---------------------|------------------|------------------|
------------------|------------------|------------------|---------------------|------------------|------------------|


                       E.   E.  E.   E.   E   E      W                    E   S  E   S  S  S  E   S  E   S   S   S  
---------|---------|------------8---10---12--13--|--15----------------|--23--22-20--18-17-15-13--------------------|
---------|---------|-------11-------------x------|--------------------|--------------------------16-15--13s-11s-13-|
---------|---------|--------x------------12------|--------------------|--------------------------------------------|
---------|---------|--10----8--------------------|--------------------|--------------------------------------------|
---------|---------|-----------------------------|--------------------|--------------------------------------------|
---------|---------|-----------------------------|--------------------|--------------------------------------------|


   E.   E   S  E   E   E      E.   E   S  E   E   E      E.   E   S  E   E   E      E.   E   S  E   E   E         
--------------------------|-----------17-18--17------|--17----------------------|--------------------------|-----|
--15---17--18-20--18--17--|--18---20-------------20--|-------18--20-17--18--15--|--17-------17-20--18--17--|-----|
--------------------------|--------------------------|--------------------------|-------17-----------------|-----|
--------------------------|--------------------------|--------------------------|--------------------------|-----|
--------------------------|--------------------------|--------------------------|--------------------------|-----|
--------------------------|--------------------------|--------------------------|--------------------------|-----|


  Q    Q    Q                Q    Q    Q                                        
--7----L----L----|-------|------------------|-------|--------||-------|-------||
--9----L----L----|-------|--12----L----L----|-------|--------||-------|-------||
--9----L----L----|-------|---9----L----L----|-------|-------*||-------|-------||
-----------------|-------|---9----L----L----|-------|-------*||-------|-------||
-----------------|-------|------------------|-------|--------||-------|-------||
-----------------|-------|------------------|-------|--------||-------|-------||


Harmony1

E||-------|-------|-------|-------|-------|-------|-------|-------|-------|-------|-------|-------|
B||-------|-------|-------|-------|-------|-------|-------|-------|-------|-------|-------|-------|
G||-------|-------|-------|-------|-------|-------|-------|-------|-------|-------|-------|-------|
D||-------|-------|-------|-------|-------|-------|-------|-------|-------|-------|-------|-------|
A||-------|-------|-------|-------|-------|-------|-------|-------|-------|-------|-------|-------|
E||-------|-------|-------|-------|-------|-------|-------|-------|-------|-------|-------|-------|


      W                     H          H             H         H            W                                         
------------------------|------------------------|-----------------------|-------------------|-------|-------|-------|
--10g12~----------------|--10~--------12~--------|-----------------------|-------------------|-------|-------|-------|
------------------------|------------------------|--12~--------9~--------|--L----------------|-------|-------|-------|
------------------------|------------------------|-----------------------|-------------------|-------|-------|-------|
------------------------|------------------------|-----------------------|-------------------|-------|-------|-------|
------------------------|------------------------|-----------------------|-------------------|-------|-------|-------|


          H        E   E   E   E      Q.      Q.      Q        Q.      Q.      Q        W                 
-------|--------------------------|------------------------|------------------10----|--12----------------|
-------|----------------------10--|--12------13------10----|--12------13------------|--------------------|
-------|--9--------L--11--12------|------------------------|------------------------|--------------------|
-------|--------------------------|------------------------|------------------------|--------------------|
-------|--------------------------|------------------------|------------------------|--------------------|
-------|--------------------------|------------------------|------------------------|--------------------|


  PM   PM  PMPM  PM PM     PM   PM PM  PM PM PM      PM    PM PM PM  PM PM    PM    PM PM PM  PM PM  
  E  S E   S E   E  E      E  S E  S   E  E  E       E  S  E  S  E   E  E     E  S  E  S  E   E  E   
-----------------------|------------------------||-------------------------|------------------------|
-----------------------|------------------------||-------------------------|------------------------|
-----------------------|------------------------||*------------------------|------------------------|
-------------7---------|--------7--9--10--9--7--||*--9--------7------------|--------------7---------|
--7----9--10----10--9--|--10--------------------||--------10-----9--10--7--|--9--------9-----10--9--|
-----------------------|------------------------||-------------------------|-------10---------------|


  PM   PM  PMPM  PM PM     PM   PM PM  PM PM PM    PM    PM PM PM  PM PM    PM    PM PM PM  PM PM  
  E  S E   S E   E  E      E  S E  S   E  E  E     E  S  E  S  E   E  E     E  S  E  S  E   E  E   
-----------------------|------------------------|------------------------|------------------------|
-----------------------|------------------------|------------------------|------------------------|
-----------------------|------------------------|------------------------|------------------------|
-------------7---------|--------7--9--10--9--7--|--9--------7------------|---------------------7--|
--7----9--10----10--9--|--10--------------------|-------10-----9--10--7--|--9--------7--9--10-----|
-----------------------|------------------------|------------------------|-------10---------------|


   PM   PM PM  PM PM PM    PM    PM PM PM PM  PM    PM   PM  PMPM PM  PM    PM   PM PM  PM PM PM  
   E  S E  S   E  E  E     E  S  E  S  E  E   E     E  S E   S E  E   E     E  S E  S   E  E  E   
------------------------|------------------------|-----------------------|-----------------------|
------------------------|------------------------|-----------------------|-----------------------|
------------------------|-----------7--8--7------|--7--------------------|-----------------------|
--------7--8--10--8--7--|--8----10-----------10--|-------8--10-7--8------|--7-------7--10--8--7--|
--10--------------------|------------------------|-------------------10--|-------8---------------|
------------------------|------------------------|-----------------------|-----------------------|


   PM   PM PM  PM PM PM    PM    PM PM PM PM  PM    PM   PM  PMPM PM  PM    PM   PM  PMPM PM  PM  
   E  S E  S   E  E  E     E  S  E  S  E  E   E     E  S E   S E  E   E     E  S E   S E  E   E   
------------------------|------------------------|-----------------------|-----------------------|
------------------------|------------------------|-----------------------|-----------------------|
------------------------|-----------7--8--7------|--7--------------------|-----------------------|
--------7--8--10--8--7--|--8----10-----------10--|-------8--10-7--8------|--7----------7--8--10--|
--10--------------------|------------------------|-------------------10--|-------8--10-----------|
------------------------|------------------------|-----------------------|-----------------------|


  E   E  E   E  E   E            E  E  E  E  E  E            E   E   E   E   E   E         
-----------------------|-----|---------------------|-----|--------------------------|-----|
-----------------------|-----|---------------------|-----|--------------------------|-----|
-----------------------|-----|---------------------|-----|--------------------------|-----|
-----------------------|-----|---------------------|-----|--------------------------|-----|
--8--10--8--10--8--10--|-----|------7--8--7--8--7--|-----|--11--13--11--13--11--13--|-----|
-----------------------|-----|--10-----------------|-----|--------------------------|-----|


  E   E  E   E  E   E  E   E                  Q.      Q.         Q.      Q.            Q.       Q    E    
------------------------------|-----|-----|--14------14------|----------14------|--13g15~------15----L\--|
------------------------------|-----|-----|------------------|--17--------------|------------------------|
------------------------------|-----|-----|------------------|------------------|------------------------|
------------------------------|-----|-----|------------------|------------------|------------------------|
--8--10--8--10--8--10--8--10--|-----|-----|------------------|------------------|------------------------|
------------------------------|-----|-----|------------------|------------------|------------------------|


                                                                                                 W                
   Q.      Q.                     Q.      Q.            Q.      Q.            Q.      Q.         Q.      Q.       
----------14------|-----|-----|--15------14------|--15g17------15------|--12g14------15------|----------14~------|
--17--------------|-----|-----|------------------|---------------------|---------------------|--17---------------|
------------------|-----|-----|------------------|---------------------|---------------------|-------------------|
------------------|-----|-----|------------------|---------------------|---------------------|-------------------|
------------------|-----|-----|------------------|---------------------|---------------------|-------------------|
------------------|-----|-----|------------------|---------------------|---------------------|-------------------|


---------|---------|---------|---------|---------|---------|---------|---------|---------|---------|---------|---------|
---------|---------|---------|---------|---------|---------|---------|---------|---------|---------|---------|---------|
---------|---------|---------|---------|---------|---------|---------|---------|---------|---------|---------|---------|
---------|---------|---------|---------|---------|---------|---------|---------|---------|---------|---------|---------|
---------|---------|---------|---------|---------|---------|---------|---------|---------|---------|---------|---------|
---------|---------|---------|---------|---------|---------|---------|---------|---------|---------|---------|---------|


---------|---------|---------|---------|---------|---------|---------|---------|---------|---------|---------|---------|
---------|---------|---------|---------|---------|---------|---------|---------|---------|---------|---------|---------|
---------|---------|---------|---------|---------|---------|---------|---------|---------|---------|---------|---------|
---------|---------|---------|---------|---------|---------|---------|---------|---------|---------|---------|---------|
---------|---------|---------|---------|---------|---------|---------|---------|---------|---------|---------|---------|
---------|---------|---------|---------|---------|---------|---------|---------|---------|---------|---------|---------|


  PM   PM  PMPM  PM PM     PM   PM PM  PM PM PM                 
  E  S E   S E   E  E      E  S E  S   E  E  E                  
-----------------------|-------------------------||-----|-----||
-----------------------|-------------------------||-----|-----||
-----------------------|------------------------*||-----|-----||
-------------7---------|--------7--9--10--9--7--*||-----|-----||
--7----9--10----10--9--|--10---------------------||-----|-----||
-----------------------|-------------------------||-----|-----||


Harmony2

E||-------|-------|-------|-------|-------|-------|-------|-------|-------|-------|-------|-------|
B||-------|-------|-------|-------|-------|-------|-------|-------|-------|-------|-------|-------|
G||-------|-------|-------|-------|-------|-------|-------|-------|-------|-------|-------|-------|
D||-------|-------|-------|-------|-------|-------|-------|-------|-------|-------|-------|-------|
A||-------|-------|-------|-------|-------|-------|-------|-------|-------|-------|-------|-------|
E||-------|-------|-------|-------|-------|-------|-------|-------|-------|-------|-------|-------|


    W                    H         H             H         H            W                                         
----------------------|----------------------|-----------------------|-------------------|-------|-------|-------|
----------------------|----------------------|-----------------------|-------------------|-------|-------|-------|
----------------------|----------------------|-----------------------|-------------------|-------|-------|-------|
--7g9~----------------|--7~--------9~--------|-----------------------|-------------------|-------|-------|-------|
----------------------|----------------------|--10~--------7~--------|--L----------------|-------|-------|-------|
----------------------|----------------------|-----------------------|-------------------|-------|-------|-------|


           H        E   E  E  E      Q.      Q.     Q        Q.      Q.      Q        W                 
-------|-------------------------|-----------------------|------------------------|--------------------|
-------|-------------------------|-----------------------|------------------10----|--13----------------|
-------|-------------------9--9--|--11------12------9----|--11------12------------|--------------------|
-------|--10--------L--12--------|-----------------------|------------------------|--------------------|
-------|-------------------------|-----------------------|------------------------|--------------------|
-------|-------------------------|-----------------------|------------------------|--------------------|


  PM    PM  PM PM  PM  PM     PM    PM  PM PM  PM  PM       PM    PM  PM PM  PM PM     PM    PM  PM PM  PM  PM  
  E  S  E   S  E   E   E      E  S  E   S  E   E   E        E  S  E   S  E   E  E      E  S  E   S  E   E   E   
--------------------------|---------------------------||---------------------------|---------------------------|
--------------10----------|--------10--12-13--12--10--||---12--------10------------|---------------10----------|
--9----11--12-----12--11--|--12-----------------------||*--------12-----11--12--9--|--11--------11-----12--11--|
--------------------------|---------------------------||*--------------------------|--------12-----------------|
--------------------------|---------------------------||---------------------------|---------------------------|
--------------------------|---------------------------||---------------------------|---------------------------|


  PM    PM  PM PM  PM  PM     PM    PM  PM PM  PM  PM     PM    PM  PM PM  PM PM     PM    PM PM  PM  PM  PM  
  E  S  E   S  E   E   E      E  S  E   S  E   E   E      E  S  E   S  E   E  E      E  S  E  S   E   E   E   
--------------------------|---------------------------|--------------------------|---------------------------|
--------------10----------|--------10--12-13--12--10--|--12--------10------------|-----------------------10--|
--9----11--12-----12--11--|--12-----------------------|--------12-----11--12--9--|--11--------9--11--12------|
--------------------------|---------------------------|--------------------------|--------12-----------------|
--------------------------|---------------------------|--------------------------|---------------------------|
--------------------------|---------------------------|--------------------------|---------------------------|


   PM    PM  PM PM  PM  PM     PM    PM  PM PM  PM  PM     PM    PM  PM PM  PM  PM     PM    PM  PM PM  PM  PM  
   E  S  E   S  E   E   E      E  S  E   S  E   E   E      E  S  E   S  E   E   E      E  S  E   S  E   E   E   
---------------------------|------------10-11--10------|--10-----------------------|---------------------------|
--------10--11-13--11--10--|--11----13-------------13--|--------11--13-10--11------|--10--------10-13--11--10--|
--12-----------------------|---------------------------|-----------------------12--|--------10-----------------|
---------------------------|---------------------------|---------------------------|---------------------------|
---------------------------|---------------------------|---------------------------|---------------------------|
---------------------------|---------------------------|---------------------------|---------------------------|


   PM    PM  PM PM  PM  PM     PM    PM  PM PM  PM  PM     PM    PM  PM PM  PM  PM     PM    PM  PM PM  PM  PM        
   E  S  E   S  E   E   E      E  S  E   S  E   E   E      E  S  E   S  E   E   E      E  S  E   S  E   E   E         
---------------------------|------------10-11--10------|--10-----------------------|---------------------------|-----|
--------10--11-13--11--10--|--11----13-------------13--|--------11--13-10--11------|--10-----------10--11--13--|-----|
--12-----------------------|---------------------------|-----------------------12--|--------10--12-------------|-----|
---------------------------|---------------------------|---------------------------|---------------------------|-----|
---------------------------|---------------------------|---------------------------|---------------------------|-----|
---------------------------|---------------------------|---------------------------|---------------------------|-----|


  E  E  E  E  E  E           E   E  E   E  E  E            E   E   E   E   E   E     E   E  E   E  E   E  E   E         
--------------------|-----|----------------------|-----|--------------------------|------------------------------|-----|
--------------------|-----|----------------------|-----|--------------------------|------------------------------|-----|
--------------------|-----|----------------------|-----|--------------------------|------------------------------|-----|
--------------------|-----|---------7------7--8--|-----|--------------------------|------------------------------|-----|
--7--8--7--8--7--8--|-----|--8--10-----10--------|-----|--10--11--10--11--10--11--|--8--10--8--10--8--10--8--10--|-----|
--------------------|-----|----------------------|-----|--------------------------|------------------------------|-----|


         Q.      Q.         Q.      Q.         Q.      Q.         Q.      Q.                     Q.      Q.      
-----|------------------|------------------|------------------|------------------|-----|-----|------------------|
-----|------------------|------------------|------------------|------------------|-----|-----|------------------|
-----|--11------11------|--12------11------|--12------12------|--12------11------|-----|-----|--12------11------|
-----|------------------|------------------|------------------|--11------12------|-----|-----|------------------|
-----|------------------|------------------|------------------|------------------|-----|-----|------------------|
-----|------------------|------------------|------------------|------------------|-----|-----|------------------|


   Q.      Q.         Q.      Q.         Q.      Q.        Q.       E   E   E      Q.       Q     E   
------------------|------------------|------------------|----------------------|---------------------|
------------------|------------------|------------------|----------------------|--12~------10----12--|
--14------12------|--11------12------|--12------11------|------------------11--|---------------------|
------------------|------------------|--11------12------|--9~------11--12------|---------------------|
------------------|------------------|------------------|----------------------|---------------------|
------------------|------------------|------------------|----------------------|---------------------|


   W                                                                                                              
   Q.     E  E   E      Q.      Q.        Q.      Q.         Q.      Q.        Q.      Q.         Q.      Q.      
--------------------|------------------|-----------------|------------------|-----------------|------------------|
--------------------|--10------10------|--8------10------|--11------11------|--8------10------|--11------10------|
--11------L--L\-----|------------------|-----------------|------------------|-----------------|------------------|
--------------------|------------------|-----------------|------------------|-----------------|------------------|
--------------------|------------------|-----------------|------------------|-----------------|------------------|
--------------------|------------------|-----------------|------------------|-----------------|------------------|


  Q.      Q.         Q.      Q.        Q.      Q.                                                                  
--8--------------|------------------|-----------------|---------|---------|---------|---------|---------|---------|
---------11------|--10------11------|--8------10------|---------|---------|---------|---------|---------|---------|
-----------------|------------------|-----------------|---------|---------|---------|---------|---------|---------|
-----------------|------------------|-----------------|---------|---------|---------|---------|---------|---------|
-----------------|------------------|-----------------|---------|---------|---------|---------|---------|---------|
-----------------|------------------|-----------------|---------|---------|---------|---------|---------|---------|


                                 E.  E  S E  E  E     E.  E  S  E  E  E     E.  E  S E  E  E   
---------|---------|---------|---------------------|---------------------|--------------------|
---------|---------|---------|------------7--------|------7--9-10--9--7--|--9------7-------7--|
---------|---------|---------|-------8--9----9--8--|--9------------------|------9----8--9-----|
---------|---------|---------|--11-----------------|---------------------|--------------------|
---------|---------|---------|---------------------|---------------------|--------------------|
---------|---------|---------|---------------------|---------------------|--------------------|


                              PM    PM  PM PM  PM  PM     PM    PM  PM PM  PM  PM                 
  E   E   E  E      E   E     E  S  E   S  E   E   E      E  S  E   S  E   E   E                  
-------------9--10g14--11--|--------------------------|----------------------------||-----|-----||
--9--10--12----------------|--------------10----------|--------10--12-13--12--10---||-----|-----||
---------------------------|--9----11--12-----12--11--|--12-----------------------*||-----|-----||
---------------------------|--------------------------|---------------------------*||-----|-----||
---------------------------|--------------------------|----------------------------||-----|-----||
---------------------------|--------------------------|----------------------------||-----|-----||


Harmony3

E||-------|-------|-------|-------|-------|-------|-------|-------|-------|-------|-------|-------|-------|-------|
B||-------|-------|-------|-------|-------|-------|-------|-------|-------|-------|-------|-------|-------|-------|
G||-------|-------|-------|-------|-------|-------|-------|-------|-------|-------|-------|-------|-------|-------|
D||-------|-------|-------|-------|-------|-------|-------|-------|-------|-------|-------|-------|-------|-------|
A||-------|-------|-------|-------|-------|-------|-------|-------|-------|-------|-------|-------|-------|-------|
E||-------|-------|-------|-------|-------|-------|-------|-------|-------|-------|-------|-------|-------|-------|


                                                            |---3---|  |--3--|  
                                          E  E  E  E  E  E  S   S   S  S  S  S  
-------|-------|-------|-------|-------|---------------------------------------|
-------|-------|-------|-------|-------|------------------------------10----10-|
-------|-------|-------|-------|-------|--------------------9h-11h-12----12----|
-------|-------|-------|-------|-------|---------------------------------------|
-------|-------|-------|-------|-------|---------------------------------------|
-------|-------|-------|-------|-------|---------------------------------------|


  |--3-|  |-3-|  |-3-|  |-3-| |--3-|  |-3-|  |-3-|  |-3-|    |--3-|  |-3-|  |-3-|  |-3-| |--3-|  |-3-|  |-3-|  |-3-|  
  S S  S  S S S  S S S  S S S S S  S  S S S  S S S  S S S    S S  S  S S S  S S S  S S S S S  S  S S S  S S S  S S S  
---------20-----15-----12------------20-----15-----12-----|---------20-----15-----12------------20-----15-----12-----|
----------------------------------------------------------|----------------------------------------------------------|
------17--------------------------17----------------------|------17--------------------------17----------------------|
----------------------------------------------------------|----------------------------------------------------------|
----------------------------------------------------------|----------------------------------------------------------|
----------------------------------------------------------|----------------------------------------------------------|


  |--3-|  |-3-| |--3-|  |-3-| |--3-|  |-3-| |--3-|  |-3-|    |--3-|  |-3-| |--3-|  |-3-| |--3-|  |-3-| |--3-|  |-3-|  
  S S  S  S S S S S  S  S S S S S  S  S S S S S  S  S S S    S S  S  S S S S S  S  S S S S S  S  S S S S S  S  S S S  
---------20------------20------------20------------20-----|---------20------------20------------20------------20-----|
----------------------------------------------------------|----------------------------------------------------------|
------17------------17------------17------------17--------|------17------------17------------17------------17--------|
----------------------------------------------------------|----------------------------------------------------------|
----------------------------------------------------------|----------------------------------------------------------|
----------------------------------------------------------|----------------------------------------------------------|


                           PH                       PH                       PH                       W               
  --   --     --   --                                                                                                 
                           E.  E   E  E  E  S       E.  E   E  E  E  S       E.  E   E  E  E  S       Q    Q    Q     
----|----||-----|----|------------------------|------------------------|------------------------|--------------------|
----|----||-----|----|--<>17---L\-------------|--<>17---L\-------------|--<>17---L\-------------|--<>15----L----L----|
----|----||*----|----|------------------------|------------------------|------------------------|--------------------|
----|----||*----|----|------------------------|------------------------|------------------------|--------------------|
----|----||-----|----|------------------------|------------------------|------------------------|--------------------|
----|----||-----|----|------------------------|------------------------|------------------------|--------------------|


   S  S  S  S  S  S  S  S  S  S  S  S     S  S  S  S  S  S  S  S  S  S  S  S     S  S  S  S  S  S  S  S  S  S  S  S  
--15-------15-------15----15----15----|--15-------15-------15----15----15----|--15-------15-------15----15----15----|
-----15-15----15-15----15----15----15-|-----15-15----15-15----15----15----15-|-----15-15----15-15----15----15----15-|
--------------------------------------|--------------------------------------|--------------------------------------|
--------------------------------------|--------------------------------------|--------------------------------------|
--------------------------------------|--------------------------------------|--------------------------------------|
--------------------------------------|--------------------------------------|--------------------------------------|


   S  S  S  S  S  S  S  S  S  S  S  S     S  S  S  S  S  S  S  S  S  S  S  S     S  S  S  S  S  S  S  S  S  S  S  S  
--13-------13-------13----13----13----|--15-------15-------15----15----15----|--15-------15-------15----15----15----|
-----13-13----13-13----13----13----13-|-----15-15----15-15----15----15----15-|-----15-15----15-15----15----15----15-|
--------------------------------------|--------------------------------------|--------------------------------------|
--------------------------------------|--------------------------------------|--------------------------------------|
--------------------------------------|--------------------------------------|--------------------------------------|
--------------------------------------|--------------------------------------|--------------------------------------|


   S  S  S  S  S  S  S  S  S  S  S  S     S  S  S  S  S  S  S  S  S  S  S  S                                          
--15-------15-------15----15----15----|--13-------13-------13----13----13----|----|----|----|----|----|----|----|----|
-----15-15----15-15----15----15----15-|-----13-13----13-13----13----13----13-|----|----|----|----|----|----|----|----|
--------------------------------------|--------------------------------------|----|----|----|----|----|----|----|----|
--------------------------------------|--------------------------------------|----|----|----|----|----|----|----|----|
--------------------------------------|--------------------------------------|----|----|----|----|----|----|----|----|
--------------------------------------|--------------------------------------|----|----|----|----|----|----|----|----|


----|----|----|----|----|----|----|----|----|----|----|----|----|----|----|----|----|----|----|----|----|----|
----|----|----|----|----|----|----|----|----|----|----|----|----|----|----|----|----|----|----|----|----|----|
----|----|----|----|----|----|----|----|----|----|----|----|----|----|----|----|----|----|----|----|----|----|
----|----|----|----|----|----|----|----|----|----|----|----|----|----|----|----|----|----|----|----|----|----|
----|----|----|----|----|----|----|----|----|----|----|----|----|----|----|----|----|----|----|----|----|----|
----|----|----|----|----|----|----|----|----|----|----|----|----|----|----|----|----|----|----|----|----|----|


      E   S  E   S  S  S  E   S  S    S  S  S  S S                                        E.   E   S  E   E   E   
--20g22--20-18--17-15--------------|---------------|----|----|----|----|----|----|----|--------------14--12------|
----------------------18-17--15----|---------------|----|----|----|----|----|----|----|--14---16--17---------16--|
--------------------------------17-|--L-15-14-12---|----|----|----|----|----|----|----|--------------------------|
-----------------------------------|---------------|----|----|----|----|----|----|----|--------------------------|
-----------------------------------|---------------|----|----|----|----|----|----|----|--------------------------|
-----------------------------------|---------------|----|----|----|----|----|----|----|--------------------------|


                                                                                         PH              
   E.   E   S  E   E   E      E.   E   S  E   E   E      E   E   E   E      E   E        Q    Q    Q     
-------14--16-17--16--14--|--16-------14---------14--|--16--17--19--21--24g26--23--|--------------------|
--17----------------------|-------17-----16--17------|-----------------------------|--<>17----L----L----|
--------------------------|--------------------------|-----------------------------|--------------------|
--------------------------|--------------------------|-----------------------------|--------------------|
--------------------------|--------------------------|-----------------------------|--------------------|
--------------------------|--------------------------|-----------------------------|--------------------|


                         PH                                  
  Q    Q    Q            Q     Q    Q       Q    Q    Q      
------------------||---------------------|-----------------||
--L----L----L-----||--<>17~----L----L----|--L----L----L----||
-----------------*||---------------------|-----------------||
-----------------*||---------------------|-----------------||
------------------||---------------------|-----------------||
------------------||---------------------|-----------------||


Rhythm1

                                     E.   E.  E   E.  E.   E     E  E  E  E  E.  E.   E     E.   E.  E   E.  E.   E   
E||-------|-------|-------|-------|---------------------------|--------------------------|---------------------------|
B||-------|-------|-------|-------|---------------------------|--------------------------|---------------------------|
G||-------|-------|-------|-------|---------------------------|--------------------------|---------------------------|
D||-------|-------|-------|-------|-----------9--10---9-------|--------------7-----------|-----------9--10---9-------|
A||-------|-------|-------|-------|--7---10---------------10--|------------------9---10--|--7---10---------------10--|
E||-------|-------|-------|-------|---------------------------|--------------------------|---------------------------|


  E  E  E  E  E.   E.   E     E.   E.  E   E.  E.   E     E  E  E  E  E.  E.   E     E.   E.  E   E.  E.   E   
---------------------------|---------------------------|--------------------------|---------------------------|
---------------------------|---------------------------|--------------------------|---------------------------|
---------------------------|---------------------------|--------------------------|---------------------------|
---------------------------|-----------9--10---9-------|--------------7-----------|-----------9--10---9-------|
--------------9---10-------|--7---10---------------10--|------------------9---10--|--7---10---------------10--|
-----------------------10--|---------------------------|--------------------------|---------------------------|


  E  E  E  E  E.   E.   E     E.   E.  E   E.  E.   E     E  E  E  E  E.  E.   E     E.   E.  E   E.  E.   E   
---------------------------|---------------------------|--------------------------|---------------------------|
---------------------------|---------------------------|--------------------------|---------------------------|
---------------------------|---------------------------|--------------------------|---------------------------|
---------------------------|-----------9--10---9-------|--------------7-----------|-----------9--10---9-------|
--------------9---10-------|--7---10---------------10--|------------------9---10--|--7---10---------------10--|
-----------------------10--|---------------------------|--------------------------|---------------------------|


  E  E  E  E  E.   E.   E     E.   E.  E   E.  E.   E     E  E  E  E  E.  E.   E     E.   E.  E   E.  E.   E   
---------------------------|---------------------------|--------------------------|---------------------------|
---------------------------|---------------------------|--------------------------|---------------------------|
---------------------------|---------------------------|--------------------------|---------------------------|
---------------------------|-----------9--10---9-------|--------------7-----------|-----------9--10---9-------|
--------------9---10-------|--7---10---------------10--|------------------9---10--|--7---10---------------10--|
-----------------------10--|---------------------------|--------------------------|---------------------------|


  E  E  E  E  E.   E.   E      W                    Q.      Q.     Q       Q.     Q.     Q       W                 
---------------------------|--------------------|-----------------------|---------------------|-------------------|
---------------------------|--13----------------|--12------10-----------|--8------5------3----|-------------------|
---------------------------|--12----------------|--11-------9------9----|--7------4------2----|--5----------------|
---------------------------|--10----------------|---9-------7------7----|--5------2-----------|--5----------------|
--------------9---10-------|--------------------|-----------------------|---------------------|-------------------|
-----------------------10--|--------------------|-----------------------|---------------------|-------------------|


                                                                                      PM PM   PM PM   PM   PM   PM  
                                                                                    S S  S  S S  S  S S  S S  S S   
-------------------|-------------------||--------------------|-------------------|---------------------------------|
-------------------|-------------------||--------------------|-------------------|---------------------------------|
-------------------|-------------------||*-------------------|-------------------|--9-9--9--9-9--9--9-9--9-9--9-9--|
-------------------|-------------------||*-------------------|-------------------|--9-9--9--9-9--9--9-9--9-9--9-9--|
-------------------|-------------------||--------------------|-------------------|---------------------------------|
-------------------|-------------------||--------------------|-------------------|---------------------------------|


    PM PM   PM PM   PM   PM   PM      PM PM   PM PM   PM   PM   PM      PM PM   PM PM   PM   PM   PM  
  S S  S  S S  S  S S  S S  S S     S S  S  S S  S  S S  S S  S S     S S  S  S S  S  S S  S S  S S   
---------------------------------|---------------------------------|---------------------------------|
---------------------------------|---------------------------------|---------------------------------|
--9-9--9--9-9--9--9-9--9-9--9-9--|--9-9--9--9-9--9--9-9--9-9--9-9--|--7-7--7--7-7--7--7-7--7-7--7-7--|
--9-9--9--9-9--9--9-9--9-9--9-9--|--9-9--9--9-9--9--9-9--9-9--9-9--|--7-7--7--7-7--7--7-7--7-7--7-7--|
---------------------------------|---------------------------------|---------------------------------|
---------------------------------|---------------------------------|---------------------------------|


      PM PM    PM PM    PM    PM    PM       PM PM    PM PM    PM    PM    PM       PM PM    PM PM    PM    PM    PM 
   S  S  S  S  S  S  S  S  S  S  S  S     S  S  S  S  S  S  S  S  S  S  S  S     S  S  S  S  S  S  S  S  S  S  S  S  
--------------------------------------|--------------------------------------|--------------------------------------|
--------------------------------------|--------------------------------------|--------------------------------------|
--12-12-12-12-12-12-12-12-12-12-12-12-|--12-12-12-12-12-12-12-12-12-12-12-12-|--12-12-12-12-12-12-12-12-12-12-12-12-|
--12-12-12-12-12-12-12-12-12-12-12-12-|--12-12-12-12-12-12-12-12-12-12-12-12-|--12-12-12-12-12-12-12-12-12-12-12-12-|
--------------------------------------|--------------------------------------|--------------------------------------|
--------------------------------------|--------------------------------------|--------------------------------------|


      PM PM    PM PM    PM    PM    PM       PM PM    PM PM    PM    PM    PM       PM PM    PM PM    PM    PM    PM 
   S  S  S  S  S  S  S  S  S  S  S  S     S  S  S  S  S  S  S  S  S  S  S  S     S  S  S  S  S  S  S  S  S  S  S  S  
--------------------------------------|--------------------------------------|--------------------------------------|
--------------------------------------|--------------------------------------|--------------------------------------|
--10-10-10-10-10-10-10-10-10-10-10-10-|--12-12-12-12-12-12-12-12-12-12-12-12-|--12-12-12-12-12-12-12-12-12-12-12-12-|
--10-10-10-10-10-10-10-10-10-10-10-10-|--12-12-12-12-12-12-12-12-12-12-12-12-|--12-12-12-12-12-12-12-12-12-12-12-12-|
--------------------------------------|--------------------------------------|--------------------------------------|
--------------------------------------|--------------------------------------|--------------------------------------|


      PM PM    PM PM    PM    PM    PM       PM PM    PM PM    PM    PM    PM                                       
   S  S  S  S  S  S  S  S  S  S  S  S     S  S  S  S  S  S  S  S  S  S  S  S     Q    Q    Q        Q    Q    Q     
--------------------------------------|--------------------------------------|------------------|------------------|
--------------------------------------|--------------------------------------|------------------|------------------|
--12-12-12-12-12-12-12-12-12-12-12-12-|--10-10-10-10-10-10-10-10-10-10-10-10-|--14----L----L----|--12----L----L----|
--12-12-12-12-12-12-12-12-12-12-12-12-|--10-10-10-10-10-10-10-10-10-10-10-10-|--12----L----L----|--10----L----L----|
--------------------------------------|--------------------------------------|------------------|------------------|
--------------------------------------|--------------------------------------|------------------|------------------|


  E.   E   S E   E  E      E.  E   S  E   E  E      Q    Q    Q       Q    Q    Q        E.  S  E  E.  E.  E   E   
-----------------------|------------------------|------------------|-----------------|----------------------------|
-----------------------|------------------------|------------------|-----------------|-----------------8---9--11--|
-------------9------9--|--10---9--10-12--10--9--|--10----L----L----|--8----L----L----|-------8-----8--------------|
--8---10--12----12-----|------------------------|--10----L----L----|--8----L----L----|--11-----11-----------------|
-----------------------|------------------------|------------------|-----------------|----------------------------|
-----------------------|------------------------|------------------|-----------------|----------------------------|


  S S S S S S E  E  E     S S S S S S E  E  E     S S S S S S E  E  E     S S S S S S E  E  E     S S S S S S E  E  E   
-----------------------|-----------------------|-----------------------|-----------------------|-----------------------|
-----------------------|-----------------------|-----------------------|-----------------------|-----------------------|
-----------------------|-----------------------|-----------------------|-----------------------|-----------------------|
--9-----7--------7--8--|--9-----7--------7--8--|--9-----7--------7--8--|--9-----7--------7--8--|--9-----7--------7--8--|
--9-----7-----9--------|--9-----7-----9--------|--9-----7-----9--------|--9-----7-----9--------|--9-----7-----9--------|
-----------------------|-----------------------|-----------------------|-----------------------|-----------------------|


  S S S S S S E  E  E     S S S S S S E  E  E     S S S S S S E  E  E     S S S S S S E  E  E     S S S S S S E  E  E   
-----------------------|-----------------------|-----------------------|-----------------------|-----------------------|
-----------------------|-----------------------|-----------------------|-----------------------|-----------------------|
-----------------------|-----------------------|-----------------------|-----------------------|-----------------------|
--9-----7--------7--8--|--9-----7--------7--8--|--9-----7--------7--8--|--9-----7--------7--8--|--9-----7--------7--8--|
--9-----7-----9--------|--9-----7-----9--------|--9-----7-----9--------|--9-----7-----9--------|--9-----7-----9--------|
-----------------------|-----------------------|-----------------------|-----------------------|-----------------------|


  S S S S S S E  E  E     S S S S S S E  E  E     S S S S S S E  E  E     S S S S S S E  E  E     S S S S S S E  E  E   
-----------------------|-----------------------|-----------------------|-----------------------|-----------------------|
-----------------------|-----------------------|-----------------------|-----------------------|-----------------------|
-----------------------|-----------------------|-----------------------|-----------------------|-----------------------|
--9-----7--------7--8--|--9-----7--------7--8--|--9-----7--------7--8--|--9-----7--------7--8--|--9-----7--------7--8--|
--9-----7-----9--------|--9-----7-----9--------|--9-----7-----9--------|--9-----7-----9--------|--9-----7-----9--------|
-----------------------|-----------------------|-----------------------|-----------------------|-----------------------|


   E.   E   S  E   E   E      E   E   E   E  E   E      E.   E   S  E   E   E      E   E   E   E  E   E   
--------------------------|-------------------------|--------------------------|-------------------------|
--------------------------|-------------------------|--------------------------|-------------------------|
--------------------------|-------------------------|--------------------------|-------------------------|
--------------------------|---------------------10--|--------------------------|---------------------10--|
--10---12--13-10--12--13--|--10--12--13--12--8---8--|--10---12--13-10--12--13--|--10--12--13--12--8---8--|
--10---12--13-10--12--13--|--10--12--13--12--8------|--10---12--13-10--12--13--|--10--12--13--12--8------|


   E.   E   S  E   E   E      E   E   E   E  E   E      E.   E   S  E   E   E      E   E   E   E  E   E         
--------------------------|-------------------------|--------------------------|-------------------------|-----|
--------------------------|-------------------------|--------------------------|-------------------------|-----|
--------------------------|-------------------------|--------------------------|-------------------------|-----|
--------------------------|---------------------10--|--------------------------|---------------------10--|-----|
--10---12--13-10--12--13--|--10--12--13--12--8---8--|--10---12--13-10--12--13--|--10--12--13--12--8---8--|-----|
--10---12--13-10--12--13--|--10--12--13--12--8------|--10---12--13-10--12--13--|--10--12--13--12--8------|-----|


            E.  E.   E.  E.  E   E         E   S  E   S  E  E  E  E  E                                             
---------|--------------------------|-----------------------------------|-----|-----|-----|-----|-----|-----|-----|
---------|--------------------------|-------------------11--L--L--L--L--|-----|-----|-----|-----|-----|-----|-----|
---------|---------------7---9--10--|--10g12--10-12--14-----------------|-----|-----|-----|-----|-----|-----|-----|
---------|--7---8---10--------------|-----------------------------------|-----|-----|-----|-----|-----|-----|-----|
---------|--------------------------|-----------------------------------|-----|-----|-----|-----|-----|-----|-----|
---------|--------------------------|-----------------------------------|-----|-----|-----|-----|-----|-----|-----|


-----|-----|-------------------|--------------------||-------------------|-------------------||
-----|-----|-------------------|--------------------||-------------------|-------------------||
-----|-----|-------------------|-------------------*||-------------------|-------------------||
-----|-----|-------------------|-------------------*||-------------------|-------------------||
-----|-----|-------------------|--------------------||-------------------|-------------------||
-----|-----|-------------------|--------------------||-------------------|-------------------||


Rhythm2

                                     E.  E.  E  E.  E.  E     E  E  E  E  E.  E.  E     E.  E.  E  E.  E.  E   
D||-------|-------|-------|-------|------------------------|-------------------------|------------------------|
A||-------|-------|-------|-------|------------------------|-------------------------|------------------------|
F||-------|-------|-------|-------|------------------------|-------------------------|------------------------|
C||-------|-------|-------|-------|------------------------|-------------------------|------------------------|
G||-------|-------|-------|-------|------0---4--5---4---0--|----------------------0--|------0---4--5---4---0--|
C||-------|-------|-------|-------|--4---------------------|--------------9---6------|--4---------------------|


  E  E  E  E  E.  E.  E     E.  E.  E  E.  E.  E     E  E  E  E  E.  E.  E     E.  E.  E  E.  E.  E   
-------------------------|------------------------|-------------------------|------------------------|
-------------------------|------------------------|-------------------------|------------------------|
-------------------------|------------------------|-------------------------|------------------------|
-------------------------|------------------------|-------------------------|------------------------|
------------------0------|------0---4--5---4---0--|----------------------0--|------0---4--5---4---0--|
--------------6-------2--|--4---------------------|--------------9---6------|--4---------------------|


  E  E  E  E  E.  E.  E     E.  E.  E  E.  E.  E     E  E  E  E  E.  E.  E     E.  E.  E  E.  E.  E   
-------------------------|------------------------|-------------------------|------------------------|
-------------------------|------------------------|-------------------------|------------------------|
-------------------------|------------------------|-------------------------|------------------------|
-------------------------|------------------------|-------------------------|------------------------|
------------------0------|------0---4--5---4---0--|----------------------0--|------0---4--5---4---0--|
--------------6-------2--|--4---------------------|--------------9---6------|--4---------------------|


  E  E  E  E  E.  E.  E     E.  E.  E  E.  E.  E     E  E  E  E  E.  E.  E     E.  E.  E  E.  E.  E   
-------------------------|------------------------|-------------------------|------------------------|
-------------------------|------------------------|-------------------------|------------------------|
-------------------------|------------------------|-------------------------|------------------------|
-------------------------|------------------------|-------------------------|------------------------|
------------------0------|------0---4--5---4---0--|----------------------0--|------0---4--5---4---0--|
--------------6-------2--|--4---------------------|--------------9---6------|--4---------------------|


  E  E  E  E  E.  E.  E      W                    Q.     Q.     Q       Q.     Q.     Q       W                       
-------------------------|--------------------|----------------------|---------------------|-------------------|-----|
-------------------------|--------------------|----------------------|---------------------|-------------------|-----|
-------------------------|--------------------|----------------------|---------------------|-------------------|-----|
-------------------------|--12----------------|--11------9-----------|--7------4-----------|--0----------------|-----|
------------------0------|--12----------------|--11------9------9----|--7------4------2----|--0----------------|-----|
--------------6-------2--|--12----------------|--11------9------9----|--7------4------2----|--0----------------|-----|


                                                                  PM PM   PM PM   PM   PM   PM  
                                                                S S  S  S S  S  S S  S S  S S   
-------------------||--------------------|-------------------|---------------------------------|
-------------------||--------------------|-------------------|---------------------------------|
-------------------||*-------------------|-------------------|---------------------------------|
-------------------||*-------------------|-------------------|---------------------------------|
-------------------||--------------------|-------------------|--4-4--4--4-4--4--4-4--4-4--4-4--|
-------------------||--------------------|-------------------|--4-4--4--4-4--4--4-4--4-4--4-4--|


    PM PM   PM PM   PM   PM   PM      PM PM   PM PM   PM   PM   PM      PM PM   PM PM   PM   PM   PM  
  S S  S  S S  S  S S  S S  S S     S S  S  S S  S  S S  S S  S S     S S  S  S S  S  S S  S S  S S   
---------------------------------|---------------------------------|---------------------------------|
---------------------------------|---------------------------------|---------------------------------|
---------------------------------|---------------------------------|---------------------------------|
---------------------------------|---------------------------------|---------------------------------|
--4-4--4--4-4--4--4-4--4-4--4-4--|--4-4--4--4-4--4--4-4--4-4--4-4--|--2-2--2--2-2--2--2-2--2-2--2-2--|
--4-4--4--4-4--4--4-4--4-4--4-4--|--4-4--4--4-4--4--4-4--4-4--4-4--|--2-2--2--2-2--2--2-2--2-2--2-2--|


    PM PM   PM PM   PM   PM   PM      PM PM   PM PM   PM   PM   PM      PM PM   PM PM   PM   PM   PM  
  S S  S  S S  S  S S  S S  S S     S S  S  S S  S  S S  S S  S S     S S  S  S S  S  S S  S S  S S   
---------------------------------|---------------------------------|---------------------------------|
---------------------------------|---------------------------------|---------------------------------|
---------------------------------|---------------------------------|---------------------------------|
---------------------------------|---------------------------------|---------------------------------|
--7-7--7--7-7--7--7-7--7-7--7-7--|--7-7--7--7-7--7--7-7--7-7--7-7--|--7-7--7--7-7--7--7-7--7-7--7-7--|
--7-7--7--7-7--7--7-7--7-7--7-7--|--7-7--7--7-7--7--7-7--7-7--7-7--|--7-7--7--7-7--7--7-7--7-7--7-7--|


    PM PM   PM PM   PM   PM   PM      PM PM   PM PM   PM   PM   PM      PM PM   PM PM   PM   PM   PM  
  S S  S  S S  S  S S  S S  S S     S S  S  S S  S  S S  S S  S S     S S  S  S S  S  S S  S S  S S   
---------------------------------|---------------------------------|---------------------------------|
---------------------------------|---------------------------------|---------------------------------|
---------------------------------|---------------------------------|---------------------------------|
---------------------------------|---------------------------------|---------------------------------|
--5-5--5--5-5--5--5-5--5-5--5-5--|--7-7--7--7-7--7--7-7--7-7--7-7--|--7-7--7--7-7--7--7-7--7-7--7-7--|
--5-5--5--5-5--5--5-5--5-5--5-5--|--7-7--7--7-7--7--7-7--7-7--7-7--|--7-7--7--7-7--7--7-7--7-7--7-7--|


    PM PM   PM PM   PM   PM   PM      PM PM   PM PM   PM   PM   PM                                      
  S S  S  S S  S  S S  S S  S S     S S  S  S S  S  S S  S S  S S     Q    Q    Q       Q    Q    Q     
---------------------------------|---------------------------------|-----------------|-----------------|
---------------------------------|---------------------------------|-----------------|-----------------|
---------------------------------|---------------------------------|-----------------|-----------------|
---------------------------------|---------------------------------|-----------------|-----------------|
--7-7--7--7-7--7--7-7--7-7--7-7--|--5-5--5--5-5--5--5-5--5-5--5-5--|--2----L----L----|--0----L----L----|
--7-7--7--7-7--7--7-7--7-7--7-7--|--5-5--5--5-5--5--5-5--5-5--5-5--|--2----L----L----|--0----L----L----|


  E.  E  S E  E  E     E.  E  S E  E  E     Q    Q    Q       Q    Q    Q       E.  S E  E.  E.  E  E   
--------------------|--------------------|-----------------|-----------------|-------------------------|
--------------------|--------------------|-----------------|-----------------|-------------------------|
--------------------|--0------0-2--0-----|-----------------|-----------------|-------------------------|
------0--2-4--2--4--|------4----------4--|-----------------|-----------------|-------------------------|
--3-----------------|--------------------|--5----L----L----|--3----L----L----|---------------0---1--3--|
--------------------|--------------------|--5----L----L----|--3----L----L----|--1---3-1--3-------------|


  S S S S S S E  E  E     S S S S S S E  E  E     S S S S S S E  E  E     S S S S S S E  E  E     S S S S S S E  E  E   
-----------------------|-----------------------|-----------------------|-----------------------|-----------------------|
-----------------------|-----------------------|-----------------------|-----------------------|-----------------------|
-----------------------|-----------------------|-----------------------|-----------------------|-----------------------|
--6-----4--------------|--6-----4--------------|--6-----4--------------|--6-----4--------------|--6-----4--------------|
--4-----2--------2--3--|--4-----2--------2--3--|--4-----2--------2--3--|--4-----2--------2--3--|--4-----2--------2--3--|
--------------6--------|--------------6--------|--------------6--------|--------------6--------|--------------6--------|


  S S S S S S E  E  E     S S S S S S E  E  E     S S S S S S E  E  E     S S S S S S E  E  E     S S S S S S E  E  E   
-----------------------|-----------------------|-----------------------|-----------------------|-----------------------|
-----------------------|-----------------------|-----------------------|-----------------------|-----------------------|
-----------------------|-----------------------|-----------------------|-----------------------|-----------------------|
--6-----4--------------|--6-----4--------------|--6-----4--------------|--6-----4--------------|--6-----4--------------|
--4-----2--------2--3--|--4-----2--------2--3--|--4-----2--------2--3--|--4-----2--------2--3--|--4-----2--------2--3--|
--------------6--------|--------------6--------|--------------6--------|--------------6--------|--------------6--------|


  S S S S S S E  E  E     S S S S S S E  E  E     S S S S S S E  E  E     S S S S S S E  E  E     S S S S S S E  E  E   
-----------------------|-----------------------|-----------------------|-----------------------|-----------------------|
-----------------------|-----------------------|-----------------------|-----------------------|-----------------------|
-----------------------|-----------------------|-----------------------|-----------------------|-----------------------|
--6-----4--------------|--6-----4--------------|--6-----4--------------|--6-----4--------------|--6-----4--------------|
--4-----2--------2--3--|--4-----2--------2--3--|--4-----2--------2--3--|--4-----2--------2--3--|--4-----2--------2--3--|
--------------6--------|--------------6--------|--------------6--------|--------------6--------|--------------6--------|


  E.  E   S E  E   E     E  E   E  E  E  E     E.  E   S E  E   E     E  E   E  E  E  E     E.  E   S E  E   E   
----------------------|---------------------|----------------------|---------------------|----------------------|
----------------------|---------------------|----------------------|---------------------|----------------------|
----------------------|---------------------|----------------------|---------------------|----------------------|
----------------------|------------------7--|----------------------|------------------7--|----------------------|
--7---9--10-7--9--10--|--7--9--10--9--5--5--|--7---9--10-7--9--10--|--7--9--10--9--5--5--|--7---9--10-7--9--10--|
--7---9--10-7--9--10--|--7--9--10--9--5-----|--7---9--10-7--9--10--|--7--9--10--9--5-----|--7---9--10-7--9--10--|


  E  E   E  E  E  E     E.  E   S E  E   E     E  E   E  E  E  E     Q    Q    Q       E  E  S  
---------------------|----------------------|---------------------|-----------------|----------|
---------------------|----------------------|---------------------|-----------------|----------|
---------------------|----------------------|---------------------|-----------------|----------|
------------------7--|----------------------|------------------7--|-----------------|----------|
--7--9--10--9--5--5--|--7---9--10-7--9--10--|--7--9--10--9--5--5--|--3----L----L----|--L--L--L-|
--7--9--10--9--5-----|--7---9--10-7--9--10--|--7--9--10--9--5-----|-----------------|----------|


  E.  E.  E.  E.  E  E     Q    Q    Q    Q       W                   E  E  E  E  E  E     E  E  E  E  E  E   
------------------------|----------------------|-------------------|--------------------|--------------------|
------------------------|----------------------|-------------------|--------------------|--------------------|
------------------------|----------------------|-------------------|--------------------|--------------------|
------------------------|----------------------|-------------------|--2-----2-----2-----|--0-----0-----0-----|
--2---0---L-------------|----------------------|-------------------|--2-----2-----2-----|--0-----0-----0-----|
--------------5---4--2--|--3----L----L----2----|--0----------------|--------------------|--------------------|


  E  E  E  E  E  E     E  E  E  E  E  E     E  S E  S E  E  E     E  S E  S E  E  E     E  S E  S E  E  E   
--------------------|--------------------|---------------------|---------------------|---------------------|
--------------------|--------------------|---------------------|---------------------|---------------------|
--------------------|--------------------|--8----8--8-8--8--8--|---------------------|---------------------|
--------------------|--0-----0-----0-----|--8----8--8-8--8--8--|--4----4--4-4--4--4--|--2----2--2-2--2--2--|
--3-----3-----3-----|--0-----0-----0-----|---------------------|--4----4--4-4--4--4--|--2----2--2-2--2--2--|
--5-----5-----5-----|--------------------|---------------------|---------------------|---------------------|


  E  S E  S E  E  E                                                                        
---------------------|-----|--------------------||-------------------|-------------------||
---------------------|-----|--------------------||-------------------|-------------------||
---------------------|-----|-------------------*||-------------------|-------------------||
--4----4--4-4--4--4--|-----|-------------------*||-------------------|-------------------||
--4----4--4-4--4--4--|-----|--------------------||-------------------|-------------------||
---------------------|-----|--------------------||-------------------|-------------------||


Bass

G||-------|-------|-------|-------|-------|-------|-------|-------|-------|-------|-------|-------|-------|-------|
D||-------|-------|-------|-------|-------|-------|-------|-------|-------|-------|-------|-------|-------|-------|
A||-------|-------|-------|-------|-------|-------|-------|-------|-------|-------|-------|-------|-------|-------|
E||-------|-------|-------|-------|-------|-------|-------|-------|-------|-------|-------|-------|-------|-------|
B||-------|-------|-------|-------|-------|-------|-------|-------|-------|-------|-------|-------|-------|-------|


                  W                   H        H           W                   H        Q    E  E    
-------|-------|-------------------|--------------------|-------------------|-----------------------|
-------|-------|--2----------------|--0-----------------|-------------------|-------------------2\--|
-------|-------|-------------------|-----------3--------|--2----------------|--L--------L-----------|
-------|-------|-------------------|--------------------|-------------------|-----------------------|
-------|-------|-------------------|--------------------|-------------------|-----------------------|


  W                   Q.     Q.     Q       Q.     Q.     Q       W                   S S S S S S S S S S S S  
-------------------|---------------------|---------------------|-------------------|--9-------9-----9---9---9-|
-------------------|---------------------|---------------------|-------------------|--------------------------|
--3----------------|--2------0------0----|---------------------|-------------------|--------7---7-7---7---7---|
-------------------|---------------------|--3------0-----------|-------------------|--------------------------|
-------------------|---------------------|----------------3----|--1----------------|--------------------------|


  S S S S S S S S S S S S      S S S S S S S S S S S S    S S S S S S S S S S S S    S S S S S S S S S S S S  
----9-----9-----9---9---9-||-----9-----9-----9---9---9-|----7-----7-----7---7---7-|----9-----9-----9---9---9-|
--------------------------||*--------------------------|--------------------------|--------------------------|
--7---7-7---7-7---7---7---||---7---7-7---7-7---7---7---|--5---5-5---5-5---5---5---|--7---7-7---7-7---7---7---|
--------------------------||*--------------------------|--------------------------|--------------------------|
--------------------------||---------------------------|--------------------------|--------------------------|


  S S S S S S S S S S S S    S S S S S S S S S S S S    S S S S S S S S S S S S    S E  S E  S E  S S S  
----9-----9-----9---9---9-|----9-----9-----9---9---9-|----7-----7-----7---7---7-|-----------------------|
--------------------------|--------------------------|--------------------------|-----------------------|
--7---7-7---7-7---7---7---|--7---7-7---7-7---7---7---|--5---5-5---5-5---5---5---|-----------------------|
--------------------------|--------------------------|--------------------------|--3----3----3----3-3-3-|
--------------------------|--------------------------|--------------------------|-----------------------|


  S E  S E  S E  S S S    S E  S E  S E  S S S    S S Q    E  E  E     S E  S E  S E  S S S    S E  S E  S E  S S S  
-----------------------|-----------------------|--------------------|-----------------------|-----------------------|
-----------------------|-----------------------|--------------------|-----------------------|-----------------------|
-----------------------|-----------------------|-----------3--1--0--|-----------------------|-----------------------|
--3----3----3----3-3-3-|--3----3----3----3-3-3-|--1-----------------|--3----3----3----3-3-3-|--3----3----3----3-3-3-|
-----------------------|-----------------------|--------------------|-----------------------|-----------------------|


  S E  S E  S E  S S S    S S Q    E  E  E                                               E  S E  S E  E  E   
-----------------------|--------------------|-----|-----|-----|-----|-----|-----|-----|---------------------|
-----------------------|--------------------|-----|-----|-----|-----|-----|-----|-----|---------------------|
-----------------------|-----------0--1--3--|-----|-----|-----|-----|-----|-----|-----|--2--2-2--2-2--2--2--|
--3----3----3----3-3-3-|--1-----------------|-----|-----|-----|-----|-----|-----|-----|---------------------|
-----------------------|--------------------|-----|-----|-----|-----|-----|-----|-----|---------------------|


  E  S E  S E  E  E                             E  S E  S E  E  E     E  S E  S E  E  E                           
---------------------|-----|-----|-----|-----|---------------------|---------------------|-----|-----|-----|-----|
---------------------|-----|-----|-----|-----|---------------------|---------------------|-----|-----|-----|-----|
--2--2-2--2-2--2--2--|-----|-----|-----|-----|--2--2-2--2-2--2--2--|--2--2-2--2-2--2--2--|-----|-----|-----|-----|
---------------------|-----|-----|-----|-----|---------------------|---------------------|-----|-----|-----|-----|
---------------------|-----|-----|-----|-----|---------------------|---------------------|-----|-----|-----|-----|


  E  S E  S E  E  E     E  S E  S E  E  E     E  S E  S E  E  E                                                         
---------------------|---------------------|---------------------|-----|-----|-----|-----|-----|-----|-----|-----|-----|
---------------------|---------------------|---------------------|-----|-----|-----|-----|-----|-----|-----|-----|-----|
--2--2-2--2-2--2--2--|--2--2-2--2-2--2--2--|--2--2-2--2-2--2--2--|-----|-----|-----|-----|-----|-----|-----|-----|-----|
---------------------|---------------------|---------------------|-----|-----|-----|-----|-----|-----|-----|-----|-----|
---------------------|---------------------|---------------------|-----|-----|-----|-----|-----|-----|-----|-----|-----|


              Q    Q    Q    Q       Q    Q    Q    Q                                                     
-----|-----|----------------------|----------------------|-----|-----|-----|-----|-----|-----|-----|-----|
-----|-----|----------------------|----------------------|-----|-----|-----|-----|-----|-----|-----|-----|
-----|-----|----------------------|----------------------|-----|-----|-----|-----|-----|-----|-----|-----|
-----|-----|----------------------|----------------------|-----|-----|-----|-----|-----|-----|-----|-----|
-----|-----|------------4----3----|--1-------------------|-----|-----|-----|-----|-----|-----|-----|-----|


  S S S S S S S S S S S S    S S S S S S S S S S S S               
--9-------9-----9---9---9-|----9-----9-----9---9---9--||----|----||
--------------------------|--------------------------*||----|----||
--------7---7-7---7---7---|--7---7-7---7-7---7---7----||----|----||
--------------------------|--------------------------*||----|----||
--------------------------|---------------------------||----|----||




Duration Legend
---------------
W - whole
H - half
Q - quarter
E - 8th
S - 16th
. - note dotted
|-n-|  - n-tuplets


Tablature Legend
----------------
L - tied note
x - dead note
g - grace note
(n) - ghost note
PH - pinch harmonic
s - legato slide
/ -  slide into from below or out of upwards
\ -  slide into from above or out of downwards
~ - vibrato
W - wide vibrato
Login or Register to remove this ad.

2 comments on The Landing

Fuck yes finally someone does

5

Fuck yes finally someone does it!

If only I could have your

5

If only I could have your ears and your patience ! Totally incredible work, as always.