Ads

Julia (Final Fantasy VIII) Guitar Tab

Submitted: Jun 09, 2009 by TheDoomOfAllFires (Last updated: Feb 04, 2010)

5
Average: 5 (7 votes)
Download | Listen
Game: Final Fantasy VIII
Composer(s): Nobuo Uematsu
Style: Arrangement, Fingerstyle
Series: Final Fantasy

AutoScroll: Slow | Medium | Fast
Final Fantasy VIII - Julia
Arranged by TheDoomOfAllFires; 06/09/2009

BPM=77


Hope you like it ! ^^



     H.           Q         E  E  E  E  E  E  Q       E  E  E  E  Q.     E   
E||--------------------||---0-----2-----4-----7----|--4------------------0--|
B||---------------0----||---0-----------5----------|--------4--5------------|
G||--------------------||*--1----------------------|-----6-----6------------|
D||--------------------||*--------1----------------|--------6---------------|
A||--------------------||------2-----2-------------|--4-----------4---------|
E||--------------------||---0--------------0-------|------------------------|


  E  E  E  E  Q    E  E     E  E  E  E  Q    Q       E  E  E  E  E  E  Q     
--2--4--0-------------0--|--2--------0------------|--0-----2-----4-----7----|
--------0--2-------2-----|--------2-----4----0----|--0-----------5----------|
-----------2-------2-----|--------------4---------|-------------------------|
--------2----------------|-----4------------------|--------1----------------|
--0-----------0----------|--2-----------2---------|-----2-----2-------------|
-------------------------|------------------------|--0--------------0-------|


                           ^                                                  
  E  E  E  Q.     Q        E   E  E   E  Q    E  E     E  E  E  E  Q    Q     
--7--------------------|--11--12--9-----------7--9--|--7----------------7----|
-----------4-----------|--10---------10-------------|--------7---------------|
-----------4-----------|---9------9-----------------|--------8-----8---------|
--------6--------------|-------------11-------------|--------------9---------|
-----6-----------------|---0-------------0----------|-----9-----9------------|
--4---------------4----|----------------------------|--7---------------------|


                                                 ^      
   E   E   E   E   Q    Q       E  E  E  Q    E  E  E   
--12----------12--11----9----|--9-----7----------4--7--|
-------------------9----9----|-----0--9--7-------4-----|
-----------9-------9----9----|-----------8-------4-----|
----------11-----------------|--6----------------------|
------11---------------------|-------------------------|
---9---------------9---------|----------------4--------|


                            ^                                                   
  E  E  E  E  E  E  Q       E  E  E  E  E  E  E  E     E  E  E  E  E  E  E  E   
--9--------9--7-----5----|--5--2--4--------------4--|--4-----2--4--5-----4--2--|
-------------------------|--0-----5-----------------|--3-----3-----------------|
--------6-----8-----6----|--------------------------|-----2-----------2--------|
-----7-------------------|--------------2--4--2--1--|--0-----------0-----------|
--0--------------0-------|-----------2--------------|--------------------------|
-------------------------|--0-----0-----------------|--------------------------|


                                                     ^                     
  E  E  H        E  E     E  E  E  E  E  E  E  E     H        Q    Q       
--2-----0-----------0--|--0--------------2--4--7--|-----------0----------||
--------2--------2-----|-----------2--------------|--7-------------0-----||
-----1-----------------|--------4-----------------|--8------------------*||
-----------------------|-----2-----2--------------|--9------------------*||
--4--------------------|--0-----------0-----------|--9-------------------||
-----------------------|--------------------------|--7-------------------||


  ^                  
  W                  
--0----------------||
--0----------------||
--1----------------||
--2----------------||
--2----------------||
--0----------------||




Duration Legend
---------------
W - whole
H - half
Q - quarter
E - 8th
S - 16th
T - 32nd
X - 64th
. - note dotted
|-n-|  - n-tuplets


Tablature Legend
----------------
L - tied note
x - dead note
g - grace note
(n) - ghost note
> - accentuded note
NH - natural harmonic
AH - artificial harmonic
TH - tapped harmonic
SH - semi harmonic
PH - pitch harmonic
h - hammer on
p - pull off
b - bend
br - bendRelease
pb - preBend
pbr - preBendRelease
brb - bendReleaseBend
\n/ - tremolo bar dip
\n - tremolo bar dive
-/n - tremolo bar Release up
/n\ - tremolo bar inverted dip
/n - tremolo bar return
-\n - tremolo bar Release down
S - shift slide
s - legato slide
/ -  slide into from below or out of upwards
\ -  slide into from above or out of downwards
~ - vibrato
W - wide vibrato
tr - trill
TP - tremolo picking
T - tapping
S - slap
P - pop
< - fade in
^ - brush up
v - brush down
Login or Register to remove this ad.

4 comments on Julia

<3 this song!

5

<3 this song!

Beautiful

5

Beautiful

Nice! Although measure 7

5

Nice! Although measure 7 needs an overhaul. That 7 in the melody should be an 11, which obviously will require changes in the accompaniment as well.

Maybe this could work:

  E  E  E  Q.     Q     
--11-------------------|
-----------9-----------|
--------8--------------|
-----9-----------------|
--11--------------11---|
-----------------------|

Does anyone know how to get

Does anyone know how to get the 2nd half of this tab?