Ads

Heresy (Final Fantasy VIII) Guitar Tab

Submitted: Jan 26, 2015 by Exdeath

5
Average: 5 (5 votes)
Download | Listen
Game: Final Fantasy VIII
Composer(s): Nobuo Uematsu
Style: Arrangement, Fingerstyle
Series: Final Fantasy

AutoScroll: Slow | Medium | Fast
  Heresy                                      


                         H        H           H        H         
E||-------------------|--------------------|--------------------|
B||-------------------|--3-----------------|--2-----------------|
G||-------------------|-----------1--------|-----------0--------|
D||-------------------|--0-----------------|--------------------|
A||-------------------|--------------------|--4-----------------|
E||-------------------|-----------4--------|-----------3--------|


  E  T S. E  T S. E  T S. E  T S.    E  T S. E  T S. E  T S. E  T S.  
----------------------------------|----------------------------------|
----------------------------------|----------------------------------|
----------------------------------|----------------------------------|
--0-------0-------0-------0-------|--3--2----3--2----3--2----3--0----|
-----4-------4-------4-------1----|--1-------1-------1-------1-------|
--3-------3-------3-------3-------|----------------------------------|


  E  T S. E  T S. E  T S. E  T S.    E  T S. E  T S. E  T S. E  T S.  
----------------------------------|----------------------------------|
----------------------------------|----------------------------------|
----------------------------------|----------------------------------|
----------------------------------|--0-------0-------0-------0-------|
--6--5----6--5----6--5----6--3----|-----4-------4-------4-------1----|
--4-------4-------4-------4-------|--3-------3-------3-------3-------|


  E  T S. E  T S. E  T S. E  T S.    E  T S. E  T S. E  T S. E  T S.  
----------------------------------|----------------------------------|
----------------------------------|----------------------------------|
--0-------0-------0-------0-------|--3-------3-------3-------3-------|
--0-------0-------0-------0-------|--3--2----3--2----3--2----3--0----|
-----4-------4-------4-------1----|--1----L--1----L--1----L--1----L--|
--3----L--3----L--3----L--3----L--|----------------------------------|


  E  T S. E  T S. E  T S. E  T S.    E  T S. E  T S. E  T S. E  T S.  
----------------------------------|----------------------------------|
----------------------------------|----------------------------------|
----------------------------------|--0-------0-------0-------0-------|
--6-------6-------6-------6-------|--0-------0-------0-------0-------|
--6--5----6--5----6--5----6--3----|-----4-------4-------4-------1----|
--4----L--4----L--4----L--4----L--|--3----L--3----L--3----L--3----L--|


  E  T S. E  T S. E  T S. E  T S.    E  T S. E  T S. E  T S. E  T S.  
----------------------------------|----------------------------------|
----------------------------------|--3--3----3--3----3--3----3--3----|
--3--3----3--3----3--3----3--3----|--3-------3-------3-------3-------|
--5-------5-------5-------5-------|--3--2----3--2----3--2----3--0----|
--5--4----5--4----5--4----5-------|--1----L--1----L--1----L--1----L--|
--3----L--3----L--3----L--3--6----|----------------------------------|


  E  T S. E  T S. E  T S. E  T S.    E  T S. E  T S. E  T S. E  T S.  
----------------------------------|----------------------------------|
----------------------------------|--3--3----3--3----3--3----3--3----|
--5--5----5--5----5--5----5--5----|--0-------0-------0-------0-------|
--6-------6-------6-------6-------|--0-------0-------0-------0-------|
--6--5----6--5----6--5----6--3----|-----4-------4-------4-------1----|
--4----L--4----L--4----L--4-------|--3----L--3----L--3----L--3----L--|


  E  E  E  E  E  E  E  E     E  E  E  E  E  E  E  E   
--------------------------|-----1--0--1-----1--0--3--|
-----3-----3-----3-----4--|--3-----------3-----------|
--3-----5-----3-----5-----|--3-----3-----3-----3-----|
--5-----5-----5-----5-----|--3--2--3--2--3--2--3--0--|
--5--4--5--4--5--4--5--1--|--1--L--1--L--1--L--1--L--|
--3--L--3--L--3--L--3--L--|--------------------------|


  E  E  E  E  E  E  E  E     E  E  E  E  E  E  E  E   
-----4-----4-----------3--|-----3-----3-----------1--|
--4-----8-----4--8--6-----|--3-----6-----3--6--5-----|
--------------------------|--------------------------|
--6-----6-----6-----6-----|--5-----5-----5-----5-----|
--6--5--6--5--6--5--6--3--|--5--4--5--4--5--4--5--1--|
--4--L--4--L--4--L--4-----|--3--L--3--L--3--L--3-----|


                       |-3-|                             
  E  E  E  E  E  E  E  S S S    E  E  E  E  E  E  E  E   
--------------------0--------|--1-----1-----1-----1-----|
-----3-----3-----6-----------|--1-----1-----1-----1-----|
--3-----5-----3-----0--------|--------------------------|
--5-----5-----5-----0--------|--------------------------|
--5--4--5--4--5--4-----------|--------------------------|
--3--L--3--L--3--L--3--3-3-3-|--1--------------L--1--4--|


  E  E  E  E  E  E  E  E     E  E  E  E  E  E  E  E   
--1-----1-----1-----1-----|--1-----1-----1-----1-----|
--1-----1-----1-----1-----|--1-----1-----1-----1-----|
--------------------------|--------------------------|
--------------------------|--------------------------|
--------------------------|-----------------------1--|
-----------------L--4--3--|-----------------L--3-----|


  E  E  E  E  E  E  E  E     E  E  E  E  E  E  E  E   
--1-----1-----1-----1-----|--1-----1-----1-----1-----|
--1-----1-----1-----1-----|--0-----0-----0-----0-----|
--------------------------|--------------------------|
--------------------------|--------------------------|
-----------------L--1--2--|-----------------L--2--3--|
--------------------------|--------------------------|


  E  E  E  E  E  E  E  E     E  E  E  E  E  E  E  E   
--1-----1-----1-----1-----|--1-----1-----1-----1-----|
--1-----1-----1-----1-----|--0-----0-----0-----0-----|
--------------------------|--------------------------|
--------------------------|--------------------------|
--------------------3--2--|-----------------L--2--3--|
--------------------------|--------------------------|


                       |-3-|                             
  E  E  E  E  E  E  E  S S S    E  E  E  E  E  E  E  E   
--1-----1-----1-----1--------|--1-----1-----1-----1--4--|
--1-----1-----1-----1--------|--1-----1-----1-----1-----|
-----------------------------|--------------------------|
-----------------------------|--------------------------|
--------------------L--------|--------------------------|
-----------------------1-1-1-|--1--------------L--1--4--|


  E  E  E  E  E  E  E  E     E  E  E  E  E  E  E  E   
-----------------L--4--3--|-----------------L--3--6--|
--6-----6-----6-----6-----|--6-----6-----6-----6-----|
--5-----5-----5-----5-----|--5-----5-----5-----5-----|
--------------------------|--------------------------|
--------------------------|--------------------------|
-----------------L--4--3--|-----------------L--3--6--|


  E  E  E  E  E  E  E  E      E  E   E  E   E  E   E  E   
-----------------L--6--7--|--------------------L---7--8--|
--6-----6-----6-----6-----|------------------------------|
--5-----5-----5-----5-----|--10-----10-----10-----10-----|
--------------------------|---9------9------9------9-----|
--------------------------|------------------------------|
-----------------L--6--7--|--------------------L---7--8--|


   E  E   E  E   E  E   E  E      E  E   E  E   E  E   E  E   
--------------------L---8--7--|--------------------L---7--8--|
------------------------------|------------------------------|
--10-----10-----10-----10-----|--10-----10-----10-----10-----|
--10-----10-----10-----10-----|---9------9------9------9-----|
------------------------------|------------------------------|
--------------------L---8--7--|--------------------L---7--8--|


   E  E   E  E   E  E   E  E     E  T S. E  T S. E  T S. E  T S.  
---------------------------L--|----------------------------------|
------------------------------|----------------------------------|
--10-----10-----10-----10-----|----------------------------------|
--10-----10-----10-----10-----|--0-------0-------0-------0-------|
------------------------------|-----4-------4-------4-------1----|
---------------------------L--|--3-------3-------3-------3-------|


  E  T S. E  T S. E  T S. E  T S.    E  T S. E  T S. E  T S. E  T S.  
----------------------------------|----------------------------------|
----------------------------------|----------------------------------|
----------------------------------|----------------------------------|
--3--2----3--2----3--2----3--0----|----------------------------------|
--1-------1-------1-------1-------|--6--5----6--5----6--5----6--3----|
----------------------------------|--4-------4-------4-------4-------|


  E  T S. E  T S. E  T S. E  T S.    E  T S. E  T S. E  T S. E  T S.  
----------------------------------|----------------------------------|
----------------------------------|----------------------------------|
----------------------------------|--0-------0-------0-------0-------|
--0-------0-------0-------0-------|--0-------0-------0-------0-------|
-----4-------4-------4-------1----|-----4-------4-------4-------1----|
--3-------3-------3-------3-------|--3----L--3----L--3----L--3----L--|


  E  T S. E  T S. E  T S. E  T S.    E  T S. E  T S. E  T S. E  T S.  
----------------------------------|----------------------------------|
----------------------------------|----------------------------------|
--3-------3-------3-------3-------|----------------------------------|
--3--2----3--2----3--2----3--0----|--6-------6-------6-------6-------|
--1----L--1----L--1----L--1----L--|--6--5----6--5----6--5----6--3----|
----------------------------------|--4----L--4----L--4----L--4----L--|


  E  T S. E  T S. E  T S. E  T S.    E  T S. E  T S. E  T S. E  T S.  
----------------------------------|----------------------------------|
----------------------------------|----------------------------------|
--0-------0-------0-------0-------|--3--3----3--3----3--3----3--3----|
--0-------0-------0-------0-------|--5-------5-------5-------5-------|
-----4-------4-------4-------1----|--5--4----5--4----5--4----5-------|
--3----L--3----L--3----L--3----L--|--3----L--3----L--3----L--3--6----|


  E  T S. E  T S. E  T S. E  T S.    E  T S. E  T S. E  T S. E  T S.  
----------------------------------|----------------------------------|
--3--3----3--3----3--3----3--3----|----------------------------------|
--3-------3-------3-------3-------|--5--5----5--5----5--5----5--5----|
--3--2----3--2----3--2----3--0----|--6-------6-------6-------6-------|
--1----L--1----L--1----L--1----L--|--6--5----6--5----6--5----6--3----|
----------------------------------|--4----L--4----L--4----L--4-------|


  E  T S. E  T S. E  T S. E  T S.    E  E  E  E  E  E  E  E   
----------------------------------|--------------------------|
--3--3----3--3----3--3----3--3----|-----3-----3-----3-----4--|
--0-------0-------0-------0-------|--3-----5-----3-----5-----|
--0-------0-------0-------0-------|--5-----5-----5-----5-----|
-----4-------4-------4-------1----|--5--4--5--4--5--4--5--1--|
--3----L--3----L--3----L--3----L--|--3--L--3--L--3--L--3--L--|


  E  E  E  E  E  E  E  E     E  E  E  E  E  E  E  E   
-----1--0--1-----1--0--3--|-----4-----4-----------3--|
--3-----------3-----------|--4-----8-----4--8--6-----|
--3-----3-----3-----3-----|--------------------------|
--3--2--3--2--3--2--3--0--|--6-----6-----6-----6-----|
--1--L--1--L--1--L--1--L--|--6--5--6--5--6--5--6--3--|
--------------------------|--4--L--4--L--4--L--4-----|


                                                  |-3-|  
  E  E  E  E  E  E  E  E     E  E  E  E  E  E  E  S S S  
-----3-----3-----------1--|--------------------0--------|
--3-----6-----3--6--5-----|-----3-----3-----6-----------|
--------------------------|--3-----5-----3-----0--------|
--5-----5-----5-----5-----|--5-----5-----5-----0--------|
--5--4--5--4--5--4--5--1--|--5--4--5--4--5--4-----------|
--3--L--3--L--3--L--3-----|--3--L--3--L--3--L--3--3-3-3-|


  E  E  E  E  E  E  E  E     E  E  E  E  E  E  E  E   
--1-----1-----1-----1-----|--1-----1-----1-----1-----|
--1-----1-----1-----1-----|--1-----1-----1-----1-----|
--------------------------|--------------------------|
--------------------------|--------------------------|
--------------------------|--------------------------|
--1--------------L--1--4--|-----------------L--4--3--|


  E  E  E  E  E  E  E  E     E  E  E  E  E  E  E  E   
--1-----1-----1-----1-----|--1-----1-----1-----1-----|
--1-----1-----1-----1-----|--1-----1-----1-----1-----|
--------------------------|--------------------------|
--------------------------|--------------------------|
-----------------------1--|-----------------L--1--2--|
-----------------L--3-----|--------------------------|


  E  E  E  E  E  E  E  E     E  E  E  E  E  E  E  E   
--1-----1-----1-----1-----|--1-----1-----1-----1-----|
--0-----0-----0-----0-----|--1-----1-----1-----1-----|
--------------------------|--------------------------|
--------------------------|--------------------------|
-----------------L--2--3--|--------------------3--2--|
--------------------------|--------------------------|


                                                  |-3-|  
  E  E  E  E  E  E  E  E     E  E  E  E  E  E  E  S S S  
--1-----1-----1-----1-----|--1-----1-----1-----1--------|
--0-----0-----0-----0-----|--1-----1-----1-----1--------|
--------------------------|-----------------------------|
--------------------------|-----------------------------|
-----------------L--2--3--|--------------------L--------|
--------------------------|-----------------------1-1-1-|


  E  E  E  E  E  E  E  E     E  E  E  E  E  E  E  E   
--1-----1-----1-----1--4--|-----------------L--4--3--|
--1-----1-----1-----1-----|--6-----6-----6-----6-----|
--------------------------|--5-----5-----5-----5-----|
--------------------------|--------------------------|
--------------------------|--------------------------|
--1--------------L--1--4--|-----------------L--4--3--|


  E  E  E  E  E  E  E  E     E  E  E  E  E  E  E  E   
-----------------L--3--6--|-----------------L--6--7--|
--6-----6-----6-----6-----|--6-----6-----6-----6-----|
--5-----5-----5-----5-----|--5-----5-----5-----5-----|
--------------------------|--------------------------|
--------------------------|--------------------------|
-----------------L--3--6--|-----------------L--6--7--|


   E  E   E  E   E  E   E  E      E  E   E  E   E  E   E  E   
--------------------L---7--8--|--------------------L---8--7--|
------------------------------|------------------------------|
--10-----10-----10-----10-----|--10-----10-----10-----10-----|
---9------9------9------9-----|--10-----10-----10-----10-----|
------------------------------|------------------------------|
--------------------L---7--8--|--------------------L---8--7--|


                                                          |-3-|  
   E  E   E  E   E  E   E  E      E  E   E  E   E  E   E  S S S  
--------------------L---7--8--|------------------------L--------|
------------------------------|---------------------------------|
--10-----10-----10-----10-----|--10-----10-----10-----10--------|
---9------9------9------9-----|--10-----10-----10-----10--3-3-3-|
------------------------------|---------------------------3-3-3-|
--------------------L---7--8--|------------------------L--1-1-1-|


  H.           Q                          
--L-----------------|-------------------||
--L-----------------|-------------------||
--------------------|-------------------||
--3-----------------|-------------------||
--3-----------------|-------------------||
--1-----------------|-------------------||
Login or Register to remove this ad.