Ads

Fragments of Memories (Final Fantasy VIII) Guitar Tab

Submitted: Jun 04, 2009 by Xion_Blico (Last updated: Feb 04, 2010)

5
Average: 5 (7 votes)
Download | Listen
Game: Final Fantasy VIII
Composer(s): Nobuo Uematsu
Style: Arrangement, Fingerstyle
Series: Final Fantasy

AutoScroll: Slow | Medium | Fast
Final Fantasy VIII - Fragments of Memories		

Composed by: Nobuo Uematsu
Tabbed by: Edo Pablico
June 4, 2009


e|------||---0-----3-----------------0----------|----------------------------3-------|
B|1--3--||*--1--------3-----0--1--------0-------|-------------0--1--------------1--3-|
G|------||------------0--------2--------0-----0-|-2-----2--2--------0----------------|
D|------||--------------------------------------|-3-----3--3-------------------------|
A|------||*--3-----------------0----------------|-------------------3----------------|
E|------||------------3-----------------0-------|-1--------1-----------------3-------|

e|-0-----3--------3--5--7--8--7-----3-|-5-----5--5--10--8--7----------------|
B|-1--------3--------5--------0-------|-1-----1--1---------0----------------|
G|----------0-------------------------|-------------------------------------|
D|------------------------------------|-------------------------------------|
A|-3--------2--------0----------------|-------------------------------------|
E|----------------------------0-------|-1--------1---------3--------4-------|

e|-8-----5--5--7--8--3----------------|-1-----0--1-----5--3----------------|
B|-5--------5--------0----------------|-1--3-----0--------3----------------|
G|------------------------------------|------------------------------------|
D|----------------------------2-------|------------------------------------|
A|-0--------0-------------------------|-------------------3--------2-------|
E|-------------------0----------------|-1--------3-------------------------|

e|-5-----1--1--3--5--3--5--7--8-------|-------1--0-------------------------|
B|-1-----1--1--------0----------------|-3--------0-----3--1----------------|
G|------------------------------------|-2-----------------2----------------|
D|------------------------------------|-0--------------------------2-------|
A|------------------------------------|-------------------0----------------|
E|-1--------1--------0--------5-------|----------0-------------------------|

e|----------------------------8--7--8-|-5--------------------------8--7--8-|
B|------------------------------------|----6--6-----6--6-----6--6----------|
G|------------------------------------|----5--5-----5--5-----5--5----------|
D|------------------------------------|-3-----------------3----------------|
A|-0----------------------------------|----------3-------------------------|
E|------------------------------------|------------------------------------|

e|-5--------------------------10--8--5-|-3--------------------------7--5--3-|
B|----6--6-----6--6-----6--6-----------|----5--5-----5--5-----5--5----------|
G|----7--7-----7--7-----7--7-----------|----4--4-----4--4-----4--4----------|
D|-0-----------------0-----------------|-2-----------------2----------------|
A|----------0--------------------------|----------2-------------------------|
E|-------------------------------------|------------------------------------|

e|-5-----------------------------------|
B|----------1-----------------0--1--3-*|
G|-------2-----2-----------0-----------|
D|----3-----------3-----0--------------|
A|------------------------------------*|
E|-1-----------------3-----------------|
Login or Register to remove this ad.

5 comments on Fragments of Memories

amazing job!

very nice amazing job =]
hope to see more from you!

Nice. It sounds pretty and

Nice. It sounds pretty and isn't difficult, except for that 1,5 stretch/bar.

I don't have my guitar in

I don't have my guitar in front of me, but is it any easier if you do 1xx5x5 instead of 1xxx15? Hehe.

Anyway..

yeah, this one not too difficult, anyway, you can change 1xxx15 to xx3565 to make it easier.

yet i prefer the old one for some nice sound

thx to Archard, the first submiter for this song and *.mid file

I've been searching/waiting

I've been searching/waiting forever for a good tab of this song. Thanks.