Ads

Fisherman's Horizon (SongeLeReveur version) (Final Fantasy VIII) Guitar Tab

Submitted: Jan 01, 2010 by ForestMarth (Last updated: Feb 03, 2012)

4.5
Average: 4.5 (6 votes)
Download | Listen
Game: Final Fantasy VIII
Composer(s): Nobuo Uematsu
Style: Arrangement, Fingerstyle, Natural harmonics, Transcription
Series: Final Fantasy

AutoScroll: Slow | Medium | Fast
                 Final Fantasy VIII - Fisherman's Horizon

Composer : Nobuo Uematsu

Arrangement : SongeLeReveur

Tabber : ForestMarth

Tabbed on : 31/12/2009 (edited on February 2012, in order to make it look better)

Platform of the game : PlayStation



I'm sorry but rhythm is not respected and all the arpeggios are not here
(here and in the Guitar Pro file).
Don't hesitate to take this tab and put it rhythm and all the arpeggios ! :-)
Look at SongeLeReveur's video to hear the rhythm.




Guitar



          
E||-------------------12------11----12----9----11----
B||--7S----9----12-----------------------------------
G||--------------------------------------------------
D||--------------------------------------------------
A||--------------------------------------------------
E||--------------------------------------------------


                                   NH                 
        
--------8S----9------------------<>12----13S----14----
--12---------------10------12----<>12-----------------
------------------------------------------------------
------------------------------------------------------
---------------------------------<>12-----------------
------------------------------------------------------


                               NH                       
        
--11----11S----12----11------<>12----15S----16----11----
-----------------------------<>12----11S----12----12----
--------------------------------------------------------
--------------------------------------------------------
--------------------------------------------------------
-----------------------------<>12-----------------------


        
--12----12----0----2------4---------------------0----2----0----0----
--14----12----0-----------5----5----0----1---------------------3----
--------------1-----------5--------------0---------------------2----
--------------2-----------4--------------2---------------------0----
-----------------------------------------0--------------------------
---------0----------------------------------------------------------


       
--0----0----2----4-----------4----7----7------7----9----7----0----
--0--------------5------5---------4----4-----------9----6----1----
--1--------------4----------------4----4-----------9----7----0----
--2--------------6---------------------6-----------7----6----2----
-----------------4-------------------------------------------0----
--0-------------------------------4----4--------------------------


        
---2-----4---------4------2----0---------0------2----4--------------
--(1)----4----5-----------2---------2----0-----------2----5----2----
--(0)----4----5-----------2--------------2-----------2--------------
--(2)----2----------------0--------------2--------------------------
-----------------------------------------------------2--------------
-----------------------------------------2--------------------------


        
---------------------------------------0------2----3S----4----------
--0----0---------2------0---------0----0-----------4S----5----5\----
--1---------1----2-----------2----0----1-----------4S----5----------
--2--------------4----------------2----2-----------3S----4----------
-----------------5----------------3---------------------------------
--0------------------------------------0----------------------------


       
------------0----2------0----0h----2p----0----------------0----2----
--0----1----------------3-----------------------3---------0---------
-------0----------------2----------------------------2----1---------
-------2----------------0---------------------------------2---------
-------0------------------------------------------------------------
----------------------------------------------------------0---------


       
--3S----4---------4------7-----------------------------------------
--4S----5----5-----------4------------------------------------4----
--3S----4----------------4--------------4-----------4--------------
--5S----6---------------------4----6-----------5---------4---------
--3S----4----------------------------------------------------------
-------------------------4-----------------------------------------


       
-----------------7------8S----9----7\----0------2----4---------------
------------------------8S----9----6\----1-----------4----4S----5----
--4---------------------8S----9----7\----0-----------4----4S----5----
-------4----------------6S----7----6\----2-----------2---------------
------------6----------------------------0---------------------------
---------------------------------------------------------------------


       
--4----2----0-----------0----2----4---------------------7----4----
-------2---------2------0---------5----5-----------5----5---------
-------2----------------2---------5-----------5----4----4---------
-------0----------------2---------4----------------6----6---------
---------------------------------------------------4----4---------
------------------------2---------4-------------------------------


       
-------------------------6S----7----6----5--------------------------
--5---------4S----5-----------------------------4----7----6----5----
-------4----4S----5--------------------------------------------4----
------------3S----4--------------------------------------------6----
------------4S----5--------------------------------------------4----
--------------------------------------------------------------------


       
--7----4----------------2----3S----4----12------11----7----9----7----
--5---------5-----------2----3S----4----10-------9----7--------------
--4--------------4------2----3S----4----10-------9----6--------------
--6---------------------4----1S----2----10-------9----6--------------
--4---------------------5--------------------------------------------
----------------------------------------------------------------4----


       
--7----7----4----7S------9----7----4----6------4-------------------
--4----5----5----5S------7----5----4----------------4--------------
--4----5----4----------------------6---------------------5---------
--4----5----6----------------------4--------------------------6----
------------4----------------------6-------------------------------
--4----5---------------------------------------4-------------------


       
---------------------------------------------------4----11----------
------------4----------------7----5----4------5----------9----12----
-------5---------5----------------4----------------------9----------
--4---------------------6---------6----------------------8----------
----------------------------------4---------------------------------
--------------------------------------------------------------------


       
--------------------------9----16----------12------14----12----14----12----
--9----10----9----10-----------14----16----10------------10-----------9----
--------9----------------------14----------13------------11-----------9----
-------11----------------------13-------------------------0----------------
--------9-----------------------------------0------------------------------
----------------------------------------------------------------------0----


        
------------------12----------------------12---------------------12----
-------------9-----------------------9----------------------9----------
--------9-----------------------9----------------------9---------------
--11----------------------10----------------------9--------------------
-----------------------------------------------------------------------
-----------------------------------------------------------------------


       
------------------2------0----2----4----4---------------------0----
--9---------------0------0---------5-----------5----0----1---------
-------9----------2------1---------5---------------------0---------
------------9\----1------2---------4---------------------2---------
------------------2--------------------------------------0---------
-------------------------0-----------------------------------------


       
--2----0----0----2h------3p----2----0-----------0----2----4---------
------------3----------------------------3------0---------5----5----
------------2-----------------------------------1---------4---------
------------0-----------------------------------2---------6---------
----------------------------------------------------------4---------
------------------------------------------------0-------------------


       
--4----7--------------------------7---------------------7---------
-------4---------------------4---------------------4--------------
-------4----------------4---------------------4-------------------
------------4----6------------------------------------------------
---------------------------------------6--------------------------
-------4-----------------------------------------------------4----


       
--7----8S----9----7------0----2----3S----4-----------4----2----0----
--4----8S----9----7------1---------3S----4------5---------2---------
--4----8S----9----6------0---------3S----4------5---------2---------
-------6S----7----6------2---------1S----2----------------0---------
-------------------------0------------------------------------------
--------------------------------------------------------------------


       
-----------------0-----------0----2----4----------------0---------
--2--------------0-----------0---------2------5----2----1---------
-----------------2-----------2---------2----------------0---------
------------2--------------------------2----------------2---------
---------------------------------------0----------------0----0----
-------2----------------2-----------------------------------------


        
----------------------------------7----9------11----------------------
--1--------------------------7----7----7------------9-----------------
-------0----------------9--------------------------------11-----------
------------2---------------------------------------------------------
-----------------0-----------------------------0---------------(0)----
----------------------------------------------------------------------


        
--12----11----12----9------11----7----9----5\------2----0--------------
-------------------------------------------------------------0---------
------------------------------------------------------------------0----
-----------------------------------------------------------------------
--------------------------------------------------------3--------------
-----------------------------------------------------------------------


              
-----------------3------5---------------------7----7------------|
------------0----------------5---------------------5------------|
-------0--------------------------5----------------4------------|
--2---------------------3--------------3-----------4------------|
----------------------------------------------------------------|
---------------------------------------------------0------------|





Tablature Legend
----------------
(n) - ghost note
NH - natural harmonic
h - hammer on
p - pull off
S - slide
/ -  slide into from below or out of upwards
\ -  slide into from above or out of downwards
Login or Register to remove this ad.

4 comments on Fisherman's Horizon (SongeLeReveur version)

No comments? Thanks for

No comments? Thanks for tabbing.

You're welcome !! :-)

You're welcome !! :-)

I really liked it, kinda hard

5

I really liked it, kinda hard to follow the timing, but after messing with it for a while, its pretty awesome =)

Well...Awesome !

5

...Awesome !