Ads

Fisherman's Horizon (Final Fantasy VIII) Guitar Tab

Submitted: Feb 24, 2014 by TheDoomOfAllFires (Last updated: Mar 01, 2014)

4.714285
Average: 4.7 (7 votes)
Download | Listen
Game: Final Fantasy VIII
Composer(s): Nobuo Uematsu
Style: Arrangement, Fingerstyle
Series: Final Fantasy

AutoScroll: Slow | Medium | Fast
"Fisherman's Horizon" - Final Fantasy VIII
Composer : Nobuo Uematsu
Arrangement : TheDoomOfAllFires
BPM : 65
Tuning : Drop D DADGBE

                                                             
E |-----------3--2--3--0h-3----|--------0-------------------|
B |-----0--3-----1-----3-------|--3--------2--3~------------|
G |--------0-----2-----0-------|--0-----------0-----2-------|
D |-----0-----0----------------|--4-----2-----------4-------|
A |----------------------------|--------------3-------------|
D |--5-------------------------|----------------------------|

                                                          
--3-----5-------------------|--3-------------------------|
--------7--7--8-----7-------|----------------------------|
----------------------------|--0--------0--2--0----------|
-----0-----7--9-----7s-4----|--------0-------------------|
----------------------------|--------------------3h-0----|
--5-------------------------|-----5----------------------|

                                                          
--7-----5--3--3-------------||----3--3--5s-7~------------|
--------7-----0-------------||-------------------8-------|
--0-------------------------||o------0--------------7----|
--------0--------------0----||o---0-----------0----------|
-----------3--2-------------||---------------------------|
--5-------------------------||-5-----------3-------------|

                                                          
-----3--5h-3--3-----2-------|-----3--3--5s-7~-------7s---|
--4-----4-----------3-------|--------------8-----8-------|
--5-----------0-------------|--------0-----------0-------|
--------------------4s-5----|-----0-----------0----------|
--3-------------------------|----------------------------|
----------------------------|--5-------------------------|

                                                          
--10~------------------10---|--12----10-------------5----|
----------------------------|--------7-----8~------------|
--------------9-----7-------|--12----------9-----0-------|
--------9-----------9-------|--------------10------------|
-----9-----9-----9----------|----------------------------|
--9-------------------------|--10------------------------|

                    ^                                     
--7--------7s-5--3--0-------|-----3--3--5s-7~----3h-0----|
--5-----8--------1--1-------|----------------------------|
--------7-----------0-------|--------0-------------------|
--5-------------------------|-----2--------0-------------|
--------------0-------------|--0-------------------------|
----------------------------|----------------------------|

              ^                ^                          
--3~----------0-------------|---------------------------||
--------3h-0--------3--1----|--3------------------------||
--------0-----2-------------|--0--3h-0-----------------o||
-----0----------------------|--------------------------o||
----------------------------|---------------------------||
--5-----------3-------------|--1------------------------||

                                                          
-----3--3--5s-7-----3-------|--3~------------------------|
-----------------------4----|----------------------------|
--------0-------------------|-----------0-----0----------|
-----2--------0-------------|--------2-----4-----2-------|
--0-------------------------|-----2-----------------2----|
----------------------------|----------------------------|

              ^                                           
--------------1-------------|--------3h-2-----------0----|
--------------1-------------|--------3-----3-------------|
--------0--2--2-------------|--4-----------------0-------|
--------------3-----2-------|--0-----0--------2----------|
-----3----------------------|--------------0-------------|
--3-------------------------|--5-------------------------|

                                     ^                    
----------------------------|--------0-------------------|
--3-------------------------|--0-----0--3--0--------2----|
--------2-----------2-------|--------0-------------------|
-----4-----------5----------|--2-----------------4-------|
--2-----------3-------------|-----2-----------4----------|
----------------------------|--2-----------4-------------|

                                                          
----------------------------|--------------2~------------|
--0-------------------------|-----------0--------3--0----|
-----------------------2----|--0-----0-----0-------------|
-----2--4--2--1~------------|-----4--2-------------------|
--2-----------2-------------|----------------------------|
----------------------------|--2-------------------------|

                                                          
--------------7~------------|--3-----------------5-------|
--1--0--1s-5--5-----7-------|-----------1s-4-------------|
----------------------------|--0-----0--------0----------|
----------------------------|-----1--------------0-------|
--0-----------4-------------|--3-------------------------|
----------------------------|----------------------------|

                                                            ^
--3-----------3-----5~------|--3-------------------------|--3----||
--------1s-4----------------|-----------0--3-----0--3----|--0----||
-----2-----------0----------|--------0--------0----------|--0----||
--3-------------------------|-----0----------------------|-------||
----------------------------|----------------------------|-------||
----------------------------|--5-------------------------|--5----||

__________________________________________________________

*Standard tuning version*

When I started working on this piece, I was thinking of Kabukibear's arrangement, which is a little more "complete" and also played in Drop D.
But when I thought about it afterwards, I said to myself that it was kinda pointless to keep it that way, since there are only a few note that requires tuning your guitar like that. Soooooo, here's a Standard (EADGBE) tuning version of my arrangement.
It doesn't change much actually, except the fact that it's even easier like that.
A nice piece to practice fingerstyle, if you ask me. :P

Enjoy !

E |-----------3--2--3--0h-3----|--------0-------------------|
B |-----0--3-----1-----3-------|--3--------2--3~------------|
G |--------0-----2-----0-------|--0-----------0-----2-------|
D |-----0-----0----------------|--4-----2-----------4-------|
A |----------------------------|--------------3-------------|
E |--3-------------------------|----------------------------|

                                                          
--3-----5-------------------|--3-------------------------|
--------7--7--8-----7-------|----------------------------|
----------------------------|--0--------0--2--0----------|
-----0-----7--9-----7s-4----|--------0-------------------|
----------------------------|--------------------3h-0----|
--3-------------------------|-----3----------------------|

                                                          
--7-----5--3--3-------------||----3--3--5s-7~------------|
--------3-----0-------------||-------------0-----8-------|
--0-------------------------||o------0--------------7----|
--------0--------------0----||o---0-----------0----------|
-----------3--2-------------||---------------------------|
--3-------------------------||-3-------------------------|

                                                          
-----3--5h-3--3-----2-------|-----3--3--5s-7~-------7s---|
--4-----4-----------3-------|--------------8-----8-------|
--5-----------0-------------|--------0-----------0-------|
--------------------4s-5----|-----0-----------0----------|
--3-------------------------|----------------------------|
----------------------------|--3-------------------------|

                                                          
--10~------------------10---|--12----10-------------5----|
----------------------------|--8-----7-----8~------------|
--------------9-----7-------|--9-----------9-----0-------|
--------9-----------9-------|--------------10------------|
-----9-----9-----9----------|----------------------------|
--7-------------------------|--8-------------------------|

                    ^                                     
--7--------7s-5--3--0-------|-----3--3--5s-7~----3h-0----|
--5-----8--------1--1-------|----------------------------|
--------7-----------0-------|--------0-------------------|
--5-------------------------|-----2--------0-------------|
--------------0-------------|--0-------------------------|
----------------------------|----------------------------|

              ^                ^                          
--3~----------0-------------|---------------------------||
--------3h-0--------3--1----|--3------------------------||
--------0-----2-------------|--0--3h-0-----------------o||
-----0----------------------|--1-----------------------o||
----------------------------|---------------------------||
--3-----------1-------------|---------------------------||

                                                          
-----3--3--5s-7-----3-------|--3~------------------------|
-----------------------4----|----------------------------|
--------0-------------------|-----------0-----0----------|
-----2--------0-------------|--------2-----4-----2-------|
--0-------------------------|-----2-----------------2----|
----------------------------|----------------------------|

              ^                                           
--------------1-------------|--------3h-2-----------0----|
--------------1-------------|--------3-----3-------------|
--------0--2--2-------------|--4-----------------0-------|
--------------3-----2-------|--0-----0--------2----------|
-----3----------------------|--------------0-------------|
--1-------------------------|--3-------------------------|

                                     ^                    
----------------------------|--------0-------------------|
--3-------------------------|--0-----0--3--0--------2----|
--------2-----------2-------|--------0-------------------|
-----4-----------5----------|--2-----------------4-------|
--2-----------3-------------|-----2-----------4----------|
----------------------------|--0-----------2-------------|

                                                          
----------------------------|--------------2~------------|
--0-------------------------|-----------0--------3--0----|
-----------------------2----|--0-----0-----0-------------|
-----2--4--2--1~------------|-----4--2-------------------|
--2-----------2-------------|----------------------------|
----------------------------|--0-------------------------|

                                                          
--------------7~------------|--3-----------------5-------|
--1--0--1s-5--5-----7-------|-----------1s-4-------------|
----------------------------|--0-----0--------0----------|
----------------------------|-----1--------------0-------|
--0-----------4-------------|--3-------------------------|
----------------------------|----------------------------|

                                                            ^
--3-----------3-----5~------|--3-------------------------|--3----||
--------1s-4----------------|-----------0--3-----0--3----|--0----||
-----2-----------0----------|--------0--------0----------|--0----||
--3-------------------------|-----0----------------------|-------||
----------------------------|----------------------------|-------||
----------------------------|--3-------------------------|--3----||


Legend
L - tied note
x - dead note
h - hammer on/pull off
b - bend
s - slide
~ - vibrato
g - ghost note
> - accentuated note
t - trill
M - palm mute
. - staccato
P - popping (bass)
S - slapping (bass)
+ - tapping
W - wide vibrato
< - fade in
w - whammy bar
= - tremolo picking
v - brush up
^ - brush down
V - pick stroke up
n - pick stroke down
Login or Register to remove this ad.

4 comments on Fisherman's Horizon

*Update*

Changed minor things for the sake of playability, to keep it smooth and easy.

Edit : UPDATECEPTION :o
Added a standard tuning version of the arrangement :P

I really liked it, and there

I really liked it, and there were definite difference between your version and Kabukibear's. I might want to combine your two versions to make my own personal favorite version...if I ever have the time to make more tabs...

Damn I have no more time now that I'm an official programmer.

Left Hand

5

I'd love to see the left hand markings on this. It's practically deviant ;)

It's a good tab though and it contributes a lot of new ideas of ways to play the piece.

The slides seem to dictate some of what's going on. Measure 9 I'm not sure what's going on, seems like you have to abandon the bass to grab the last couple notes (I slide up to 10 on the middle finger).

FH seems to appreciate lots Legato to keep it flowing, I'm always comparing the different versions. Though it's most likely that every arranger has to make sacrifices to get it to work on guitar.

The last couple notes of measure 7 seems to call back to the end of the intro slightly, might be a taste issue there tho.

Sounds kinda negative for 5 stars, but, it's one of my favourite pieces..

Just dropping by a Thank you

4

heyya Doomofallfires!, I just wanna say thanks for the tabs..now I can daydream staring at the trees moving with the winds while playing my guitar..

play:Thanks a million