Ads

Find Your Way (Final Fantasy VIII) Guitar Tab

Submitted: Aug 12, 2010 by Bhael (Last updated: Jul 09, 2011)

4.764705
Average: 4.8 (17 votes)
Download | Listen
Game: Final Fantasy VIII
Composer(s): Nobuo Uematsu
Style: Arrangement, Fingerstyle
Series: Final Fantasy

Click here for a video example.

AutoScroll: Slow | Medium | Fast
                                Find Your Way   
                              Final Fantasy VIII          
                                Nobuo Uematsu




     ^                 ^              ^           ^      
     E  E  E  E  E  E  E  E     E  E  E  E  E  E  E  E   
E||--0-----------------7-----|--------3-----------------|
B||--0-----------------0-----|--------0-----------3-----|
G||--2-----------------0-----|--------0-----------0-----|
D||-----2--3--2--------------|-----2--3--2-----3-----2--|
A||--0-----------0--8-----7--|--0-----------0-----------|
E||--------------------------|--------------------------|


  ^                                                   
  E  E  E  E  E  E  E  E     E  E  E  E  E  E  E  E   
--------------------------|--------------------------|
--1-----------------------|--------------------------|
--2--2--2-----------0-----|--------------------0-----|
--2--2--3--2--------------|-----2--3--2--------------|
--0--------------8-----7--|--0-----------0--8-----7--|
--------------5-----------|--------------------------|


  ^                 ^              ^           ^      
  E  E  E  E  E  E  E  E     E  E  E  E  E  E  E  E   
--3--0--0-----------7-----|--------3-----------------|
--0-----------------0-----|--------0-----------3-----|
--0-----------------0-----|--------0-----------0-----|
--------------------0-----|--------------------0-----|
-----2--3--2-----3-----2--|-----2--3--2-----3-----2--|
--0-----------0-----------|--0-----------0-----------|


                    ^              ^           ^      
  E  E  E  E  E  E  E  E     E  E  E  E  E  E  E  E   
--------------------7-----|--------3-----------------|
--------------------0-----|--------0-----------3-----|
--------------------0-----|--------0-----------0-----|
--------------------0-----|--------------------0-----|
-----2--3--2-----3-----2--|-----2--3--2-----3-----2--|
--0-----------0-----------|--0-----------0-----------|


          |-3-| |-3-| |-3-| |-3-| |-3-| |-3-|    
    E  E  S S S S S S S S S S S S S S S S S S  3x
|---------5-----5------------------------------||
|---------------------8-----6-----5-----5------||
|*----------5-----5-----5-----5-----5-----5---*||
|*------------7-----7-----7-----7-----7-----7-*||
|------7---------------------------------------||
|---5-----------------5------------------------||


  |-3-| |-3-| |-3-| |-3-| |-3-| |-3-| |-3-| |-3-|  
  S S S S S S S S S S S S S S S S S S S S S S S S  
--------------------3-----0-----0-----0-----0-----|
--3-----5-----6-------------0---------------------|
----4-----4-----4-----4-------5-----5-----5-----5-|
------5-----5-----5-----5---------7-----5-----4---|
--------------------------0-----------------------|
--3-----------------------------------------------|


          |-3-| |-3-| |-3-| |-3-| |-3-| |-3-|    
    E  E  S S S S S S S S S S S S S S S S S S  3x
|---------5-----5------------------------------||
|---------------------8-----6-----5-----5------||
|*----------5-----5-----5-----5-----5-----5---*||
|*------------7-----7-----7-----7-----7-----7-*||
|------7---------------------------------------||
|---5-----------------5------------------------||


  |-3-| |-3-| |-3-| |-3-| |-3-| |-3-| |-3-| |-3-|  
  S S S S S S S S S S S S S S S S S S S S S S S S  
--------------------3-----0-----0-----0-----0-----|
--3-----5-----6-------------0---------------------|
----4-----4-----4-----4-------5-----5-----5-----5-|
------5-----5-----5-----5---------7-----5-----4---|
--------------------------0-----------------------|
--3-----------------------------------------------|


          |-3-| |-3-| |-3-| |-3-| |-3-| |-3-|    
    E  E  S S S S S S S S S S S S S S S S S S  3x
|---------2-----2------------------------------||
|---------------------5-----3-----2-----2------||
|*----------2-----2-----2-----2-----2-----2---*||
|*------------4-----4-----4-----4-----4-----4-*||
|------4---------------------------------------||
|---2-----------------2------------------------||


  |-3-| |-3-| |-3-| |-3-| |-3-| |-3-| |-3-| |-3-|  
  S S S S S S S S S S S S S S S S S S S S S S S S  
--------------------0-----------------------------|
--0-----2-----3-----------2-----2-----2-----2-----|
----1-----1-----1-----1-------2-----2-----2-----2-|
------2-----2-----2-----2---6-----4-----2---------|
----------------------------------------------4---|
--0-----------------------2-----------------------|


          |-3-| |-3-| |-3-| |-3-| |-3-| |-3-|    
    E  E  S S S S S S S S S S S S S S S S S S  3x
|---------2-----2------------------------------||
|---------------------5-----3-----2-----2------||
|*----------2-----2-----2-----2-----2-----2---*||
|*------------4-----4-----4-----4-----4-----4-*||
|------4---------------------------------------||
|---2-----------------2------------------------||


  |-3-| |-3-| |-3-| |-3-| |-3-| |-3-| |-3-| |-3-|                             
  S S S S S S S S S S S S S S S S S S S S S S S S    E  E  E  E  E  E  E  E   
--------------------0-----------------------------|--------------------------|
--0-----2-----3-----------2-----2-----2-----2-----|--------0-----------2-----|
----1-----1-----1-----1-------2-----2-----2-----2-|-----3-----3-----4-----3--|
------2-----2-----2-----2---6-----4-----2---------|--1-----------1-----------|
----------------------------------------------4---|--------------------------|
--0-----------------------2-----------------------|--------------------------|


  E  E  E  E  E  E  E  E     E  E  E  Q    Q    E     E  E  E  E  E  E  E  E   
--------------------------|------------------------|--------------------------|
--------0-----------2-----|--------0---------------|--------------7-----7-----|
-----3-----3-----4-----3--|-----3-----3----4-------|-----6--7--6-----6-----6--|
--1-----------1-----------|--1--------3----4----6--|--7-----------------------|
--------------------------|------------------------|--0-----------0-----------|
--------------------------|------------------------|--------------------------|


  E  E  Q    E  E  E  E     E  E  E  E  E  E  E   E   
-------------------------|--5--------7-----8-----10--|
--5-----3----------5-----|---------------------------|
-----6-------6--------6--|--------------------0------|
----------------4--------|-----2--3--2---------------|
--0----------0-----------|--0-----------0--8------7--|
-------------------------|---------------------------|


   E  E   E  E  E  E  E  E      E  E  E  E  E  E  E  E   
--11------------8-----8-----|---------------------------|
----------------------------|--11-----9-----8-----------|
------0------0-----0-----0--|------0-----0-----0-----0--|
----------------------------|---------------------8-----|
---------11-----------------|---------------------------|
---8------------8-----------|---8-----------8-----------|


  E  E   E  E  E  E  E  E      E  E  E  E  E  E  E  E   
---------------8-----8-----|---------------------------|
---------------------------|--11-----9-----8-----------|
-----0------0-----0-----0--|------0-----0-----0-----0--|
---------------------------|---------------------8-----|
--------11-----------------|---------------------------|
--8------------8-----------|---8-----------8-----------|


  ^                 ^              ^           ^        ^                  
  E  E  E  E  E  E  E  E     E  E  E  E  E  E  E  E     W                  
--0-----------------7-----|--------3-----------------|-------------------||
--0-----------------0-----|--------0-----------3-----|-------------------||
--2-----------------0-----|--------0-----------0-----|--2----------------||
-----2--3--2--------------|-----2--3--2-----2-----2--|--2----------------||
--0-----------0--8-----7--|--0-----------3-----2-----|--0----------------||
--------------------------|--------------------------|-------------------||




Duration Legend
---------------
W - whole
H - half
Q - quarter
E - 8th
S - 16th
T - 32nd
X - 64th
. - note dotted
|-n-|  - n-tuplets


Tablature Legend
----------------
L - tied note
x - dead note
g - grace note
(n) - ghost note
> - accentuded note
NH - natural harmonic
AH - artificial harmonic
TH - tapped harmonic
SH - semi harmonic
PH - pitch harmonic
h - hammer on
p - pull off
b - bend
br - bendRelease
pb - preBend
pbr - preBendRelease
brb - bendReleaseBend
\n/ - tremolo bar dip
\n - tremolo bar dive
-/n - tremolo bar Release up
/n\ - tremolo bar inverted dip
/n - tremolo bar return
-\n - tremolo bar Release down
S - shift slide
s - legato slide
/ -  slide into from below or out of upwards
\ -  slide into from above or out of downwards
~ - vibrato
W - wide vibrato
tr - trill
TP - tremolo picking
T - tapping
S - slap
P - pop
< - fade in
^ - brush up
v - brush down
Login or Register to remove this ad.

9 comments on Find Your Way

Heavens, how come I didn't

Heavens, how come I didn't check this out before?
It's been a long time since I've been craving for a solo version of this song, and this is just Perfect. I believe you based it on TheDoomOfAllFires' duet, right?
Anyways, I liked how it turned out a lot. It reminded me of Auriplane's Cry in Sorrow, from Final Fantasy IV. Find you Way has a beautiful and steady bass line, and you managed to put the melody in the middle without messing with it. Great job.
The lonely basses in the triplets gave it a nice sound as well.
There are just some parts that I found a little bit troubling. Like that oe you have to press the 7 fret on the first string and the 2 fret on the fourth string. I guess I'll need bigger hands. Well, it can be fixed.

Congratulations for this tablature, and thank you for sharing!

For some reason this is under

For some reason this is under hslesperance... I will have words :P. Anyway, this was indeed loosely based on TheDoomOfAllFire's duet. It is a little challenging in parts, but with a bit of practice it can become quite easy. Just keep working on the 2-7 stretch. I have very average sized hands, but I not longer find it difficult. I'm glad you liked my tab.

I changed it to Bhael, and

I changed it to Bhael, and fixed the spelling of Nobuo :-)

Haha, thanks. I can never

Haha, thanks. I can never spell that guy's name right.

Fuckin love this tab. Great

Fuckin love this tab. Great job.

Cheers

Cheers

Love this song and tab but it

5

Love this song and tab but it is literally painful to play after a while.

I think I have terrible form and need to re-examine how I play because that seems really strange @[email protected]

It's just a matter of

It's just a matter of building strength in your left hand. This is very hard to play smoothly, especially on an acoustic. It can be done though!

how did i miss this one,

5

how did i miss this one, superb