Ads

Eyes on Me (Final Fantasy VIII) Guitar Tab

Submitted: Aug 27, 2019 by guitarsvd (Last updated: Sep 04, 2019)

5
Average: 5 (6 votes)
Download | No audio :(
Game: Final Fantasy VIII
Composer(s): Nobuo Uematsu
Style: Arrangement, Artificial harmonics, Fingerstyle, Natural harmonics
Series: Final Fantasy

Click here for a video example.

AutoScroll: Slow | Medium | Fast
                                  Eyes on Me                                    


                                                          Cecil Chau (GuitarSVD)
Track 1











       T T   T T   T T   T T   T T   T T   T T   T T   T T   T T   T T   T T   T
E||------------------5-----5-----------5-----------------------------5-----5----
B||------------7-----------------7-----------7-----------------7----------------
G||------6-------------<>6---------<>6-------------6-----6-------------<>6------
D||--------------<>5---------<>5---------<>5---------------------<>5---------<>5
A||--------<>5---------------------------------<>5---------<>5------------------
E||--<>5---------------------------------------------<>5------------------------


     ^               ^                NH                        
     Q     E   E     Q     Q          Q     E   E   Q    E  E   
----10----12--14--<>12----------|-----------9--10---9----------|
--<>12--------------10----14----|--<>12----10--12--10-------3--|
--<>12--------------11----------|--<>12-------------9----2-----|
--------------------------------|------------------------------|
--------------------------------|------------------------------|
--------------------------------|------------------------------|


  E  E  S S S S  E   E   E   E     E   E  E   E  Q    E  E   
--0-----L-----------10------10--|------------10-------2--0--|
----------3-2-3-10-------9------|--9------9------3----------|
--------0-------11------10------|-----11--------------------|
-----0--------------------------|---------0------2----------|
--------------------------------|---------------------------|
--3-----------------------------|--0------------------------|


                      NH                               
  Q     Q     Q       Q       E  E  E  E  Q      Q     
--L-----------9------------|--5----------------<>5----|
-------------------<>12----|-----------3--L-----------|
-------10----10------------|--------2-----------------|
-------11------------------|-----0--------------------|
--0------------------------|--------------------------|
---------------------------|--------------------------|


  E  E  E  E  Q    E  E     E  E  Q    Q    E  E     E  E  E  E  Q    Q     
--L--------2--L----------|--------0----2----5--2--|--L-----------0---------|
--------3--3--L----------|--3-----3---------------|-----------3--3----3----|
-----2----------------2--|-----2------------------|--------4----------4----|
--0----------------------|--0---------------------|-----4------------------|
-------------------------|------------------------|--2---------------------|
-------------------------|------------------------|------------------------|


  E  E  H        E  E     E  E  E  E  Q    E  E     E  E  Q    Q    E  E   
--0--2-----------------|--0----------------------|--------0----2----5--9--|
--------3--------0--3--|-----------2--0----------|--3-----3---------------|
--------0--------------|--------2----------2--2--|-----2------------------|
-----0-----------------|-----2-------------------|--0---------------------|
-----------------------|--0----------------------|------------------------|
--3--------------------|-------------------------|------------------------|


  E   E   E   E   E   E   E  E     E   E  Q    E  E  E  E   
--L-----------------------------|--9--10--7----L--5--7--5--|
-------------10---L-------------|---------0----------------|
---------11----------11---------|--0-----------------------|
-----11------------------11-----|--------------------------|
--9--------------------------9--|--------------------------|
--------------------------------|--------------------------|


  E  E  E  E  Q    Q        E  E  E   E  Q    E  E     E  E  E  E  Q    E  E   
--L----------------5----|--10--------10--9----7--7--|--L--5--------L----2--5--|
-----------3--2---------|---------------------------|-----------2--L----------|
--------2-----2---------|-------------7--9----7--7--|--------2----------------|
-----2------------------|---------9-----------------|-----4-------------------|
--0---------------------|------9--------------------|-------------------------|
------------------------|---7-----------------------|--2----------------------|


  E  E  E  E  E  E  Q       E  E  E  E  E  E  E  E     E  E  E  E  Q    E  E   
--7--------7--5-----3----|--3--0--2--------------2--|--------------3----------|
-----------0--L-----0----|--------------5-----3-----|--7-----5--7--3----7--5--|
--------0----------------|-----------2-----2-----2--|--------3----------------|
-----0-----------0-------|--0-----------------------|-----5-------------------|
-------------------------|--------------------------|--3----------------------|
--3----------------------|--------------------------|-------------------------|


  E  E  E  E  Q    E  E     E  E  E  E  E  E  E  E   
--0----------------------|-----------------0--2--5--|
-----3-----2--3----0--2--|--3--------3--L-----------|
--------4----------------|--------4-----------------|
-----4-------------------|-----4--------------------|
--2----------------------|--------------------------|
-------------------------|--4-----------------------|


           |-----7-----|  7  7                             
  H        E  E  E  E  E  E  E     E  E  Q    E  E  E  E   
--0--------5--3--2--------------|--------0-------2--5--2--|
--------------------3-----------|-------------------------|
--3--------------------2--0-----|-----2-------------2-----|
--0--------------------------4--|--0-----2----4--------4--|
--------------------------------|-------------------------|
--3-----------------------------|-------------------------|


  E  E  E  E  E  E  E  E     E  E  E  E  Q    E  E     E  Q    E  E  E  E  E   
--------------2-----------|-------------------------|-------------------------|
-----------3-----3--------|--------------3----------|-------------0-----2-----|
--------4-----------4-----|-----------0-------------|----------2--------2-----|
--L--4-----------------4--|--2--4--0-------------0--|--L--2----------L--------|
--2-----------------------|-------------------2-----|--0-------------------0--|
--------------------------|--0-----L----------------|-------------------------|


  E  E  E  E  Q    E  E     E  E  E  E  E  E  E  E     E  E  E  E  E  E  E  E   
--------0----------------|--------------------------|--------------------------|
----------------------2--|--L-----------2-----------|--2--3--0-----L-----0-----|
-----2-----2--L----2-----|-----------2-----2--------|-----------0-----2-----2--|
--0-----2-----4----------|--------4-----------4-----|--------------0-----------|
-------------------------|-----4-----------------4--|--------------------------|
-------------------------|--2-----------------------|--3-----------------------|


  E  E  E  E  Q    Q        E  E  E   E  E  E  E  E     E  E  E  E  Q    E  E   
-----------0-------5----|--10--------10--9-----7--7--|--L--5--------L----2--5--|
--------3-----2---------|----------------7-----------|-----------2--L----------|
--L--2------------------|---------7------------7--7--|--------2----------------|
------------------------|------9------9-----9--------|-----4-------------------|
--0---------------------|----------------------------|-------------------------|
------------------------|---7------------------------|--2----------------------|


  E  E  E  E  E  E  E  E     E  E  E  E  E  E  E  E     E  E  E  E  Q    E  E   
--7--------7--5--3-----2--|--L--0--------L--------0--|--------0-----2----3--5--|
-----------0--0-----3-----|-----------3--------2-----|--3-----------3----------|
--------0-----------1-----|--------2--------2--------|--------2----------------|
-----0--------------------|-----2--------------------|-----0-----0-------------|
--------------------------|--0-----------------------|-------------------------|
--3-----------------------|--------------3-----------|--2----------------------|


  |--3--|  |--3--|                                        
  E  E  E  E  E  E  E  E  E  E     Q    E  E  Q    E  E   
--L--------------------5--3-----|--2---------------0-----|
-----------------3--0--------3--|-------3--2--0----0--3--|
--------------0-----------------|-------4--2--0----0-----|
--------2--4--------------------|------------------------|
-----2--------------------------|------------------0-----|
--0-----------------------------|------------------------|


                                     |-----3-----|     
  E  E  E  E  E  E  Q       H        Q    Q      Q     
-------------------------|----------------2-----------|
--3-----------3--2--0----|-----------3----------------|
--------2-----4--2--0----|--2------------------<>2----|
-----4-----4-------------|--0-------------------------|
--5----------------------|----------------------------|
-------------------------|----------------------------|


                                              |------3------|     
    E  E  E    E    H           E  E  E  E    Q      Q      Q     
-----------------------------|-----------3----L------------------|
--<>2--------<>0--<>0--------|--L-----------<>0----<>2----<>3----|
---------------0----L--------|--------0--------------------------|
----------0------------------|-----0-----------------------------|
-----------------------------|-----------------------------------|
-------3---------------------|--3--------------------------------|


                                            |----3----|     
    E  E  E    E    H           E  E  E  E  Q    Q    Q     
----------2---------L--------|--------------2----2----3----|
--<>0------------------------|--------3-----3----3----3----|
-------------<>2--<>2--------|--L--2-----2--L--------------|
-------0---------------------|--0--------------------------|
-----------------------------|-----------------------------|
-----------------------------|-----------------------------|


                                      |--3-|  |-3|     
  E  E  E  E  H           E  E  E  E  Q    E  E  Q     
--5--------3--3--------|--L-----------3----5-----7----|
-----------5--5--------|--L--------2--3----5-----8----|
--------5--------------|--------2---------------------|
-----5-----------------|-----2------------------------|
--3--------------------|--0-----------0-------0-------|
-----------------------|------------------------------|


                                        |--3-|  |-3|     
  E  E  E  E  E  E  Q       E  E  E  E  Q    E  E  Q     
--7--------5--5----------|-------------------2-----5----|
--------7-----------3----|--L-----3--0--3---------------|
-----7-----------2-------|-----1--------0---------------|
--0-----------2----------|--3-----------2---------------|
-------------------------|----------------------0-------|
-------------------------|------------------------------|


                                        |--3-|  |-3-|     
  E  E  E  E  E  E  E  E     E  E  Q    Q    E  E   Q     
--9--------7--7-----------|--L----------7----9-----10----|
-----------------0--------|--------0---------------------|
--------0--7--7-----0-----|-------------9-------7--------|
-----0-----------------0--|-----4-------9-------7--------|
--------------------------|-------------8----------------|
--3-----------------------|--4---------------------------|


                                ^                         
   E   E   E   E   Q    Q       E  E  E  E  E  E   E  E   
---9-----------5---L----9----|--7---------------------5--|
--10----------10---L---------|--7--7---------------------|
----------11--11-------------|--8-----8------------------|
------11---------------------|-----------9--7------------|
---9-------------------------|-----------------9---------|
-----------------------------|--7-----------------11--7--|


  E  E   E  E  Q.     S S    E  E  E  E  E  E  E  E   
--5--3--10-----3--------0-|--2--------2--L-----------|
---------0-----0------3---|-----------3-----5--------|
-----0------0-------------|--------2-----6-----7--6--|
--------------------------|-----2--------5-----------|
--------------------------|--0-----------------------|
--0-----------------------|--------------------------|


  E  E  E  E  E  E  E  E     H         Q    Q       H        E  E  E  E   
--0-----------------L-----|------------9----7----|--5--------------------|
-----------------------3--|--3--------10----8----|--7-----------------3--|
-----------0--2--0--------|----------------------|-----------------2-----|
--------0-----------0-----|--0-------------------|--------------4--------|
--------------------------|----------------------|-----------5-----------|
-----3--------------------|----------------------|-----------------------|


                                                             |-----3----|     
  E  E  E  E  E  E  E  E     Q.     E  H            H        Q    Q     Q     
-----------2--------2--5--|--9------7--7--------|---L--------7----9----10----|
--------3--------3-----2--|--0---------7--------|---9------------------------|
-----2--------2--------2--|--0---------7--------|--10--------7----9----10----|
--4-----------------------|---------------------|---9------------------------|
--------------------------|---------------------|----------------------------|
--------------------------|---------------------|----------------------------|


   Q.      E   Q    Q       H        Q    Q       E  E   Q    Q.     S S  
---9----------------9----|--7-------------5----|--5--3--10----3--------0-|
----------10---L---------|-----------7---------|--3--3---7----3------3---|
--11---------------------|--9--------8---------|--0--0---7---------------|
--11---------------------|--7------------------|--4--2---0----2----------|
-------------------------|---------------------|--------------3----------|
-------------------------|---------------------|-------------------------|


           ^                                                                
  E  E  E  E  E  E  E  E     E  E  E  E  E  E  E  E     H        Q    Q     
--2--------2--L--0--------|--0-----------------0-----|---------------------|
--3--------3--L-----3--2--|-----------------3-----3--|--3-------------1----|
--0--0--2--3--L-----------|--------0--2--3-----3-----|--2--------2----2----|
--------------------------|-----0--------------------|--0------------------|
--1-----------------------|--------------------------|-----------3---------|
--------------------------|--3-----------------------|---------------------|


  E     E    
--2--|--L--||
--2--|--L--||
--2--|--L--||
--0--|--L--||
-----|-----||
-----|-----||




Duration Legend
---------------
W - whole
H - half
Q - quarter
E - 8th
S - 16th
T - 32nd
X - 64th
. - note dotted
|-n-|  - n-tuplets


Tablature Legend
----------------
L - tied note
x - dead note
g - grace note
(n) - ghost note
> - accentuded note
NH - natural harmonic
AH - artificial harmonic
TH - tapped harmonic
SH - semi harmonic
PH - pitch harmonic
h - hammer on
p - pull off
b - bend
br - bendRelease
pb - preBend
pbr - preBendRelease
brb - bendReleaseBend
\n/ - tremolo bar dip
\n - tremolo bar dive
-/n - tremolo bar Release up
/n\ - tremolo bar inverted dip
/n - tremolo bar return
-\n - tremolo bar Release down
S - shift slide
s - legato slide
/ -  slide into from below or out of upwards
\ -  slide into from above or out of downwards
~ - vibrato
W - wide vibrato
tr - trill
TP - tremolo picking
T - tapping
S - slap
P - pop
< - fade in
^ - brush up
v - brush down
Login or Register to remove this ad.

1 comment on Eyes on Me

beatiful

Beatiful arrangement =).