Eyes On Me (Final Fantasy VIII) Guitar Tab

Submitted: Feb 19, 2010 by TheDoomOfAllFires

4.944445
Average: 4.9 (18 votes)
Download | Listen
Game: Final Fantasy VIII
Composer(s): Nobuo Uematsu
Style: Arrangement, Fingerstyle
Series: Final Fantasy

AutoScroll: Slow | Medium | Fast
Final Fantasy VIII - Eyes On Me
Arranged by TheDoomOfAllFires; 02/18/2010
Based on the official arrangement.


BPM=90

Capo. 3


Hope you like it ! ^^


     ^                                                  
     Q    Q    E   E  E   E     E  E  E  Q    E  E  E   
E||--4---------4p--2--7p--0--|-------------------------|
B||--3-----------------------|--4--------5----------0--|
G||-------2------------------|--------6----------1-----|
D||--0-----------------------|-----6-----6-------------|
A||--------------------------|--4-------------4--------|
E||--------------------------|-------------------------|


  ^                          ^        ^           ^                   
  E   E   E  Q    E  Q       H        H           H        Q    Q     
--------------------------|-----------0--------|--0--------L---------|
---------------------3----|--3--------0--------|--3--------L---------|
--2p--1h--2---------------|--2--------1--------|--1--------L---------|
--0---------------4-------|--4--------2--------|----------------2----|
--2----------2------------|--------------------|---------------------|
--------------------------|--------------------|--0--------L---------|


    E  E  E  E  E  E  E  E     E  E  E  Q.     Q     
|---------------------0-----|-----------------------|
|---------0-----2--------2--|-----------------------|
|*--2-----------------2-----|-----------2-----------|
|*-----2-----2-----2--------|--------4--------------|
|---0-----------0-----------|-----4-----------------|
|---------------------------|--2---------------2----|


  ^                           ^        ^                                      
  E   E  Q    E  E   E  E     H        Q    Q       E  E  E  E  E  E  E   E   
---------------------------|---------------------|--------------------0h--4--|
--0h--2--------------------|--0--------0---------|--------0-----2------------|
--2------2----L---------2--|--2--------1---------|--2-----------------2------|
--0--------------0h--4-----|-----------2----2----|-----2-----2-----2---------|
---------------------------|---------------------|--0-----------0------------|
---------------------------|--0------------------|---------------------------|


                            ^                          
  E  E  E  Q    E  E  E     E   E  E  E  E  E  E   E   
-----------0----------0--|--4h--5--2--------0--2p--0--|
--------2----------------|--3------3--------3---------|
-----1-----1-------1-----|--2------------2------------|
-------------------------|--0---------0---------------|
--4-------------4--------|----------------------------|
-------------------------|----------------------------|


              ^                              ^                               
  E  E  E  E  Q    E  E     E  E  E  E  Q    Q       E  E  E  Q    E  E  E   
--0--------0----------0--|--5--------5--4----2----|----------------------0--|
--------0----------------|-----------2-------2----|--7-----5----------2-----|
-----2--------1----------|--------2----------2----|-----------4-------------|
--------------2----------|-----4------------------|-----6-----6-------------|
-------------------------|------------------------|--4-------------4--------|
--0-----------0----1-----|--2---------------------|-------------------------|


  ^                        ^                         ^                        
  E  E  E  E  Q    Q       E  E  Q    E  E  E  E     Q    E  E  E  E  E   E   
--2--------2--0---------|-------------------------|--------------------------|
--3----------------3----|--3--0--2-------------2--|--2----0--2--3-----2p--0--|
--2-----2-----2---------|--2--2--2----------2-----|--0----0------------------|
--0--4------------------|--2-------------2--------|--0-------------0---------|
------------------------|--0----------0-----------|--------------------------|
------------------------|-------------------------|--3----------3------------|


                            ^                        ^                    
  E  E  Q    E  E  E  E     H        E  E   E  E     H.           Q       
-------------------------|---------------------0--|---------------------||
--0----------------------|--------------0h--2-----|--0------------------||
--------2-------------2--|--2--------L------------|--1-----------------*||
--------4----------4-----|--0--------L------------|--2------------2----*||
-----4----------4--------|--2--------L------------|---------------------||
--2----------2-----------|------------------------|--0------------------||


  E  E  E  E  E  E  E  E     E  E  E  Q    E  E  E   
--5--------5--4-----2-----|----------------------0--|
-----------2--------------|--7-----5----------2-----|
--------2-----------------|--------6--4-------------|
-----4-----------------4--|-----6-------------------|
--------------------------|--4-------------4--------|
--2--------------2--------|-------------------------|


                              ^                                               
  E  E  E  E   E  E  E  E     H        Q.     E     E  E  E  E  E  E  E   E   
--2--------2p--0-----------|---------------------|---------------------------|
------------------3-----2--|--0------------------|--------0-----2--0---------|
--------2------------2-----|--1--------1---------|--2-----------------2p--1--|
--0--4---------------------|-----------0------2--|-----2-----2-----2---------|
---------------------------|---------------------|--0-----------0------------|
---------------------------|--0------------------|---------------------------|


  ^                      ^                                      ^             
  H        E.  E.  E     E  E  E  E  E  E  E  E     E  E  E  E  E.    E.  E   
-------------------0--|--4--------2--2-----------|--------------2---2g4---5--|
---------------2---2--|--3--------3--------3-----|--------3------------------|
--0--------2---2------|--------2--------2-----2--|-----2-----2--2---2g4---6--|
--2--------2----------|--0--4--------0-----------|--0-----------0------------|
-------------------0--|--------------------------|---------------------------|
--0-------------------|--------------------------|---------------------------|


                                      ^                                         
  E  E  E  E  E  E  E  E     E  E  E  E  E.  E.  E     E  E  E  E  E  E  E  E   
--2--------0--0-----------|----------------------0--|--0-----------------------|
--2--------2--------------|-----------2--2---3---3--|--0--------3--3-----------|
--------2-----------2-----|--------2--2--2---2------|--------0-----0-----0-----|
-----2-----------2-----2--|-----2-----2-------------|-----0-----------0-----0--|
--0-----------0-----------|--0----------------------|--------------------------|
--------------------------|-------------------------|--3-----------3-----------|


                                                                ^           
  E  E  E  E  E.  E.  E     E  E  E  E  E  E  E  E     H        E.  E.  E   
------------------0---2--|--2--------0--0-----------|-------------------0--|
--------------3----------|--2--------2--------------|---------------2---2--|
--------0-----0---0---2--|--------2-----------2-----|-----------2---2------|
-----0-----0-------------|-----2-----------2-----2--|-----------2----------|
-------------------------|--0-----------0-----------|--0--------4----------|
--3-----------3----------|--------------------------|----------------------|


                                         ^             
  E  E  E  E  E  E  E  E     E  E  E  E  E.    E.  E   
--4--------2--2-----------|--------------2---2g4---5--|
--3--------3--------3-----|--------3------------------|
--------2--------2-----2--|-----2-----2--2---2g4---6--|
--0--4--------0-----------|--0-----------0------------|
--------------------------|---------------------------|
--------------------------|---------------------------|


                             ^        ^            ^          ^            
  E  E  E  E  E  E  E  E     H        Q.     E     E  E  Q    Q.     S  S  
--4-----------------4-----|--2--------2------0--|--0-----5----------------|
--------5-----------5-----|--2--------2---------|-----3-------3-----------|
--------6-----------------|--4--------3---------|-------------2------2h-4-|
-----6-----6-----6-----6--|---------------------|--4----------4-----------|
--4-----------4-----------|---------------------|--2----------------------|
--------------------------|--2------------------|-------------------------|


                 ^            ^                   ^                 
  E  E  E  E  E  E  E   E     W                   W                 
---------------------------|-------------------|-------------------|
--2--------2-----0---------|--0----------------|-------------------|
-----------1-----1--2p--1--|--2----------------|--2----------------|
--------2--------2---------|--0----------------|--2----------------|
-----2---------------------|-------------------|--0----------------|
--0-----------0------------|-------------------|-------------------|


  ^                                 ^                                           
  H        Q    Q       E  E  E  E  E   E   E  E     Q    E.  T  T  E.  E.  E   
--5-------------0----|--2-----------2h--4p--2--0--|----------------------------|
--2--------2---------|--3-----3-----3-------------|-------2---0h-2p-0----------|
--2------------------|-----2-----2----------------|---------------------2------|
--2------------------|--0-----------0-------------|-------------------------4--|
--0------------------|----------------------------|--4-------------------------|
---------------------|----------------------------|----------------------------|


                                  ^                                            
  E  E  E  E  Q    E  E     E  E  H        E  E     E  E  E  E  E   E  E   E   
-------------------------|--------------------0--|--2-----------2s--9--7p--5--|
-----------2--0----------|-----2--2--------2--2--|--------3-------------------|
--------2----------2-----|--------2--------2-----|-----2-----2----------------|
-----4--4-----0-------4--|--------4--------------|--0-----------0-------------|
--2----------------------|-----------------------|----------------------------|
-------------------------|--2--------------------|----------------------------|


                  ^                        ^           ^        ^            
  E  E  Q    Q    E   E     E  E  E  E  E  E  E  E     E  E  E  Q.     Q     
--7----------------------|--0--------0--------------|-----------------------|
--------5---------3p--2--|-----------------3--2-----|--------2--0------L----|
--------6---------2------|--------2--------2-----2--|--2--------1------L----|
-----6-------------------|-----0-----------2--------|--4--------------------|
--4----------4----0------|--2-----------2-----------|-----2-----------------|
-------------------------|--------------------------|--0--------0------L----|


  ^        ^                                                          
  H        Q    Q       E  E  E  E  E  E  E  E     Q    H.            
---------------------|--------------------0-----|--------------------|
--0--------0---------|--------------2--------2--|--2-----------------|
--1--------1---------|--2-----4-----------2-----|-------1------------|
--0--------0----2----|--------------4-----------|--------------------|
---------------------|-----4-----4-----4--------|-------4------------|
--0--------1---------|--2-----------------------|--0-----------------|


  ^                          ^        ^                                     
  E   E  Q.     E   E  E     H        H           E  E  E  E  E  E  E   E   
--------------------------|--------------------|--------------------0h--4--|
--0h--2-------------------|--0-----------------|--------0-----2-----2------|
--2------2-------------2--|--2--------1--------|--2------------------------|
--0-------------0h--4-----|--0--------2--------|-----2-----2-----2---------|
--------------------------|--------------------|--0-----------0------------|
--------------------------|--0--------0--------|---------------------------|


                            ^                           ^        ^          
  E  E  E  Q    E  E  E     E   E  E  E  E  E   Q       H        Q.     E   
-----------0----------0--|--4h--5--2--------0h--2----|--0--------0------0--|
--------2----------2-----|--3---------------3--------|--0--------0---------|
-----1-------------------|---------2-----2-----------|--2--------1---------|
-------------------------|--0---------0--------------|--2--------2---------|
--4-------------4--------|---------------------------|---------------------|
-------------------------|---------------------------|--0--------0---------|


  Q.     Q.     Q       H        E  E   E  E     E  E  E  E   E   E  E  E   
---------------------|---------------------0--|--5-------------------------|
--0------------------|--------------2p--0-----|--------0-------------0-----|
--2------------------|--2---------------------|-----6-----6--(6)--6-----6--|
--0------0------L----|--2--------2------------|----------------------------|
---------------------|--0---------------------|--0-------------------------|
---------------------|------------------------|----------------------------|


                               ^                  
  E  E  E  E   E   E  E  E     W                  
--5-------------------------|--5----------------||
--------0-------------0-----|--0----------------||
-----6-----6--(6)--6-----6--|--6----------------||
----------------------------|-------------------||
--0-------------------------|--0----------------||
----------------------------|-------------------||




Duration Legend
---------------
W - whole
H - half
Q - quarter
E - 8th
S - 16th
T - 32nd
X - 64th
. - note dotted
|-n-|  - n-tuplets


Tablature Legend
----------------
L - tied note
x - dead note
g - grace note
(n) - ghost note
> - accentuded note
NH - natural harmonic
AH - artificial harmonic
TH - tapped harmonic
SH - semi harmonic
PH - pitch harmonic
h - hammer on
p - pull off
b - bend
br - bendRelease
pb - preBend
pbr - preBendRelease
brb - bendReleaseBend
\n/ - tremolo bar dip
\n - tremolo bar dive
-/n - tremolo bar Release up
/n\ - tremolo bar inverted dip
/n - tremolo bar return
-\n - tremolo bar Release down
S - shift slide
s - legato slide
/ -  slide into from below or out of upwards
\ -  slide into from above or out of downwards
~ - vibrato
W - wide vibrato
tr - trill
TP - tremolo picking
T - tapping
S - slap
P - pop
< - fade in
^ - brush up
v - brush down
Login or Register to remove this ad.

5 comments on Eyes On Me

o-o <3, I will devour this

5

o-o <3, I will devour this tab!

It's been some time since I'm

It's been some time since I'm looking for a GOOD arrangement of this song. And, well, thank you for delivering it to me! It seems very nice to play. Smooth and beautiful. A nice piece this is!
Your arrangements and duets are great, sir. Thank you for sharing it with us!

fecking awesome

fecking awesome

Thank you very much your

5

Thank you very much your tabs, i love its.

If you guys want to hear my

5

If you guys want to hear my recording of this instead of listening to the midi:
https://youtu.be/CJNtbtOlv4Y