Ads

The Extreme (Final Fantasy VIII) Guitar Tab

Submitted: Feb 27, 2011 by ThulsaDoom

4.875
Average: 4.9 (8 votes)
Download | Listen
Game: Final Fantasy VIII
Composer(s): Nobuo Uematsu
Style: 2 or more instruments, Arrangement
Series: Final Fantasy

AutoScroll: Slow | Medium | Fast
The Extreme (lonlonjp & ThulsaDoom version) 

arranged by lonlonjp & ThulsaDoom
Composer: Nobuo Uematsu
Game: Final Fantasy VIII
Copyright: 1999 Square Enix Co., Ltd.

Tuning : Standard
Capo: 0

Tab by ThulsaDoom

Date: 02/26/11   

Guitar 1:


     S S S S S S S S S S S S S S S S    S S S S S S S S S S S S S S S S  
E||--------0-----0-----1-----0-----1-|--------0-----0-----1-----0-----1-|
B||------3---3-----3-----3-----3-----|------2---2-----2-----2-----2-----|
G||----3-------3-----3-----3-----3---|----2-------2-----2-----2-----2---|
D||--0-------------------------------|--0-------------------------------|
A||----------------------------------|----------------------------------|
E||----------------------------------|----------------------------------|


  S S S S S S S S S S S S S S S S    S S S S S S S S S S S S S S S S  
--------0-----0-----1-----0-----1-|--------0-----0-----1-----0-----1-|
------3---3-----3-----3-----3-----|------2---2-----2-----2-----2-----|
----3-------3-----3-----3-----3---|----2-------2-----2-----2-----2---|
--0-------------------------------|--0-------------------------------|
----------------------------------|----------------------------------|
----------------------------------|----------------------------------|


  S S S S S S S S S S S S S S S S    S S S S S S S S S S S S S S S S  
--------0-----0-----1-----0-----1-|--------0-----0-----1-----0-----1-|
------3---3-----3-----3-----3-----|------2---2-----2-----2-----2-----|
----3-------3-----3-----3-----3---|----2-------2-----2-----2-----2---|
--0-------------------------------|--0-------------------------------|
----------------------------------|----------------------------------|
----------------------------------|----------------------------------|


  S S S S S S S S S S S S S S S S    S S S S S S S S S S S S S S S S  
--------0-----0-----1-----0-----1-|--------0-----0-----1-----0-----1-|
------3---3-----3-----3-----3-----|------2---2-----2-----2-----2-----|
----3-------3-----3-----3-----3---|----2-------2-----2-----2-----2---|
--0-------------------------------|--0-------------------------------|
----------------------------------|----------------------------------|
----------------------------------|----------------------------------|


  S S S S S S S S S S S S S S S S    S S S S S S S S S S S S S S S S  
--------0-----0-----1-----0-----1-|--------0-----0-----1-----0-----1-|
------3---3-----3-----3-----3-----|------2---2-----2-----2-----2-----|
----3-------3-----3-----3-----3---|----2-------2-----2-----2-----2---|
--0-------------------------------|--0-------------------------------|
----------------------------------|----------------------------------|
----------------------------------|----------------------------------|


  S S S S S S S S S S S S S S S S    S S S S S S S S S S S S S S S S  
--------0-----0-----1-----0-----1-|--------0-----0-----1-----0-----1-|
------3---3-----3-----3-----3-----|------2---2-----2-----2-----2-----|
----3-------3-----3-----3-----3---|----2-------2-----2-----2-----2---|
--0-------------------------------|--0-------------------------------|
----------------------------------|----------------------------------|
----------------------------------|----------------------------------|


  S S S S S S S S S S S S S S S S    S S S S S S S S S S S S S S S S  
--0-1-----0---5---3---1-0-----0---|--0-1-----0---5---3---1-0-----0---|
--------3-------------------3-----|--------3-------------------3-----|
------2-----2---2---2-----2-----2-|------2-----2---2---2-----2-----2-|
----------------------------------|----------------------------------|
----------------------------------|----------------------------------|
----------------------------------|----------------------------------|


  S S S S S S S S S S S S S S S S    S S S S S S S S S S S S S S S S  
--0-1-----0---5---3---1-0-----0---|--0-1-----0---5---3---1-0-----0---|
--------3-------------------3-----|--------3-------------------3-----|
------2-----2---2---2-----2-----2-|------2-----2---2---2-----2-----2-|
----------------------------------|----------------------------------|
----------------------------------|----------------------------------|
----------------------------------|----------------------------------|


  S S S S S S S S S S S S S S S S    S S S S S S S S S S S S S S S S  
----------0---------------0-------|----------0---------------0-------|
------6-----6---6-----6-----6---6-|------6-----6---6-----6-----6---6-|
----7---7-----7-----7---7-----7---|----6---6-----6-----6---6-----6---|
--6---------------6---------------|--7---------------7---------------|
----------------------------------|----------------------------------|
----------------------------------|----------------------------------|


  S S S S S S S S S S S S S S S S    S S S S S S S S S S S S S S S S  
----------0---------------0-------|--5---5---6---6---1---1---0---0---|
------6-----6---6-----6-----6---6-|----5-------8-------3---3---3---2-|
----7---7-----7-----7---7-----7---|--6-----6-0-----0-----------------|
--6---------------6---------------|------------------0---------------|
----------------------------------|--------------------------0-------|
----------------------------------|----------------------------------|


  E  E  E  E  E  E  E  E     E  E  E  E  E  E  E  E   
--------------------------|--------------------------|
--------------------------|--------------------------|
--------------------------|--------------------------|
--0--0--0--0--0--0--------|--0--0--0--0--0--0--------|
--------------------3--3--|--------------------3--3--|
--------------------------|--------------------------|


  E  E  E  E  E  E  E  E     E  E  E  E  E  E  E  E   
--------------------------|--------------------------|
--------------------------|--------------------------|
--------------------------|--------------------------|
--0--0--0--0--0--0--------|--0--0--0--0--0--0--------|
--------------------3--3--|--------------------3--3--|
--------------------------|--------------------------|


  E  E  E  E  E  E  E  E     E  E  E  E  E  E  E  E   
--0--1--------0-----5-----|--3-----1--0--------0-----|
-----------3--------------|-----------------3--------|
--------------------------|--------------------------|
--------0--------0-----0--|-----0--------0--------0--|
--------------------------|--------------------------|
--------------------------|--------------------------|


  E  E  E  E  E  E  E  E     E  E  E  E  E  E  E  E   
--0--1--------0-----5-----|--3-----1--0--------0-----|
-----------3--------------|-----------------3--------|
--------------------------|--------------------------|
--------0--------0-----0--|-----0--------0--------0--|
--------------------------|--------------------------|
--------------------------|--------------------------|


  E  E  E  E  E  E  E  E     E  E  E  E  E  E  E  E   
--0--1--------0-----5-----|--3-----1--0--------0--5--|
-----------3--------------|-----------------3--------|
--------------------------|--------------------------|
--------0--------0-----0--|-----0--------0-----------|
--------------------------|--------------------------|
--------------------------|--------------------------|


  E  E  E  E  E  E  E  E     E  E  E  E  E  E  E  E   
--0--1--------0-----5-----|--3-----1--0--------0--5--|
-----------3--------------|-----------------3--------|
--------------------------|--------------------------|
--------0--------0-----0--|-----0--------0-----------|
--------------------------|--------------------------|
--------------------------|--------------------------|


  E  E  E  E  E  E  E  E     E  E  E  E  E  E  E  E   
--------------------------|--------------------------|
--------------------------|--------------------------|
--------------0-----------|--------------1--2-----0--|
--0--2--3--0-----0--2--3--|--0--2--3--0--------2-----|
--------------------------|--------------------------|
--------------------------|--------------------------|


  E  E  E  E  E  E  E  E     E  E  E  E  E  E  E  E   
--------------------------|--------------------------|
--------------------------|--------------------------|
--------------0-----------|--------------3-----------|
--0--2--3--0-----0--2--3--|--0--2--3--0-----0--2--3--|
--------------------------|--------------------------|
--------------------------|--------------------------|


  E  E  E  E  E  E  E  E     E  E  E  E  E  E  E  E   
--------------------------|--------------------------|
--------------------------|--------------------------|
--------------0-----------|--------------1--2-----0--|
--0--2--3--0-----0--2--3--|--0--2--3--0--------2-----|
--------------------------|--------------------------|
--------------------------|--------------------------|


  E  E  E  E  E  E  E  E     E  E  E  E  E  E  E  E   
--------------------------|--------------------------|
--------------------------|--------------------------|
--------------0-----------|--------------3--1--2-----|
--0--2--3--0-----0--2--3--|--0--2--3--0-----------1--|
--------------------------|--------------------------|
--------------------------|--------------------------|


  E  E  E  E  E  E  E  E     E  E  E  E  E  E  E  E   
--------------------------|--------------------------|
--------------------------|--------------------------|
--------------0-----------|--------------1--2-----0--|
--0--2--3--0-----0--2--3--|--0--2--3--0--------2-----|
--------------------------|--------------------------|
--------------------------|--------------------------|


  E  E  E  E  E  E  E  E     E  E  E  E  E  E  E  E   
--------------------------|--------------------------|
--------------------------|--------------------------|
--------------0-----------|--------------3--1--2-----|
--0--2--3--0-----0--2--3--|--0--2--3--0-----------1--|
--------------------------|--------------------------|
--------------------------|--------------------------|


  E  E  E  E  E  E  E  E     E  E  E  E  E  E  E  E   
--------------------------|--------------------------|
--------------------------|--------------------------|
--------------0-----------|--------------1--2-----0--|
--0--2--3--0-----0--2--3--|--0--2--3--0--------2-----|
--------------------------|--------------------------|
--------------------------|--------------------------|


  E  E  E  E  E  E  E  E     E  E  E  E  E  E  E  E   
-----0--------------------|-----0--------------------|
--------1--3--------------|--------1--3--------------|
--3-----------------------|--3-----------------------|
--------------2--------0--|--------------2--------0--|
-----------------1--3-----|-----------------1--3-----|
--------------------------|--------------------------|


  E  E  E  E  E  E  E  E     E  E  E  E  E  E  E  E   
-----0--------------------|-----0--------------------|
--------1--3--------------|--------1--3--------------|
--3-----------------------|--3-----------0-----------|
--------------2--------0--|-----------------0--3-----|
-----------------1--3-----|-----------------------3--|
--------------------------|--------------------------|


  E  E  E  E  E  E  E  E     E  E  E  E  E  E  E  E   
--------------------------|--------------------------|
--------------------------|--------------------------|
--------------0-----------|--------------1--2-----0--|
--0--2--3--0-----0--2--3--|--0--2--3--0--------2-----|
--------------------------|--------------------------|
--------------------------|--------------------------|


  E  E  E  E  E  E  E  E     E  E  E  E  E  E  E  E   
--------------------------|--------------------------|
--------------------------|--------------------------|
--------------0-----------|--------------3--1--2-----|
--0--2--3--0-----0--2--3--|--0--2--3--0-----------1--|
--------------------------|--------------------------|
--------------------------|--------------------------|


  E  E  E  E  E  E  E  E     E  E  E  E  E  E  E  E   
--------------------------|--------------------------|
--------------------------|--------------------------|
--------------0-----------|--------------1--2-----0--|
--0--2--3--0-----0--2--3--|--0--2--3--0--------2-----|
--------------------------|--------------------------|
--------------------------|--------------------------|


  E  E  E  E  E  E  E  E     E  E  E  E  E  E  E  E   
--------------------------|--------------------------|
--------------------------|--------------------------|
--------------0-----------|--------------3--1--2-----|
--0--2--3--0-----0--2--3--|--0--2--3--0-----------1--|
--------------------------|--------------------------|
--------------------------|--------------------------|


  E  E  E  E  E  E  E  E     E  E  E  E  E  E  E  E   
--------------------------|--------------------------|
--------------------------|--------------0--1--------|
-----0--1-----3-----0--1--|-----0--1-----------0--3--|
--3--------3-----3--------|--3--------3--------------|
--------------------------|--------------------------|
--------------------------|--------------------------|


  E  E  E  E  E  E  E  E     E  E  E  E  E  E  E  E   
--------------------------|--------------------------|
--------------------------|--------------2-----1-----|
-----0--1-----3-----0--1--|-----0--1--------0--------|
--3--------3-----3--------|--3--------3-----------4--|
--------------------------|--------------------------|
--------------------------|--------------------------|


  E  E  E  E  E  E  E  E     E  E  E  E  E  E  E  E   
--------------------------|--------------------------|
--------------------------|--------------0--1--------|
-----0--1-----3-----0--1--|-----0--1-----------0--3--|
--3--------3-----3--------|--3--------3--------------|
--------------------------|--------------------------|
--------------------------|--------------------------|


  E  E  E  E  E  E  E  E     E  E  E  E  E  E  E  E   
--4--3--4-----------4--3--|--------4--3--4-----------|
-----------4-----4--------|-----4-----------4-----4--|
--------------------------|--------------------------|
--------------6-----------|--6-----------------6-----|
--------------------------|--------------------------|
--------------------------|--------------------------|


  E  E  E  E  E  E  E  E     E  E  E  E  E  E  E  E   
--4--3--4-----------4--3--|--------4--3--4-----------|
-----------4-----4--------|-----4-----------4-----4--|
--------------------------|--------------------------|
--------------6-----------|--6-----------------6-----|
--------------------------|--------------------------|
--------------------------|--------------------------|


  E  E  E  E  E  E  E  E     E  E  E  E  E  E  E  E   
--3--2--3-----------3--2--|--------3--2--3-----------|
-----------3-----3--------|-----3-----------3-----3--|
--------------------------|--------------------------|
--------------5-----------|--5-----------------5-----|
--------------------------|--------------------------|
--------------------------|--------------------------|


  E  E  E  E  E  E  E  E     E  E  E  E  E  E  E  E   
--3--2--3-----------3--2--|--------3--2--3-----------|
-----------3-----3--------|-----3-----------3-----3--|
--------------------------|--------------------------|
--------------5-----------|--5-----------------5-----|
--------------------------|--------------------------|
--------------------------|--------------------------|


  E  E  E  E  E  E  E  E     E  E  E  E  E  E  E  E   
--4--3--4-----------4--3--|--------4--3--4-----------|
-----------4-----4--------|-----4-----------4-----4--|
--------------------------|--------------------------|
--------------6-----------|--6-----------------6-----|
--------------------------|--------------------------|
--------------------------|--------------------------|


  E  E  E  E  E  E  E  E     E  E  E  E  E  E  E  E   
--4--3--4-----------4--3--|--------4--3--4-----------|
-----------4-----4--------|-----4-----------4-----4--|
--------------------------|--------------------------|
--------------6-----------|--6-----------------6-----|
--------------------------|--------------------------|
--------------------------|--------------------------|


  E  E  E  E  E  E  E  E     E  E  E  E  E  E  E  E   
--3--2--3-----------3--2--|--------3--2--3-----------|
-----------3-----3--------|-----3-----------3-----3--|
--------------------------|--------------------------|
--------------5-----------|--5-----------------5-----|
--------------------------|--------------------------|
--------------------------|--------------------------|


  E  E  E  E  E  E  E  E     E  E  E  E  E  E  E  E   
--3--2--3-----------3--2--|--------3--2--3-----------|
-----------3-----3--------|-----3-----------3-----3--|
--------------------------|--------------------------|
--------------5-----------|--5-----------------5-----|
--------------------------|--------------------------|
--------------------------|--------------------------|


  E  E  E  E  E  E  E  E     E  E  E  E  E  E  E  E   
--------------------------|--------------------------|
--------------------------|--------------------------|
--0-----------0-----------|--0-----------0-----------|
--------------------------|--------------------------|
--------------------------|--------------------------|
--3--3--3--3--4--4--4--4--|--5--5--5--5--4--4--4--4--|


  E  E  E  E  E  E  E  E     E  E  E  E  E  E  E  E   
--------------------------|--------------------------|
--------------------------|--------------------------|
--0-----------0-----------|--0-----------0-----------|
--------------------------|--------------------------|
--------------------------|--------------------------|
--3--3--3--3--4--4--4--4--|--5--5--5--5--4--4--4--4--|


  ^  v  ^  v  ^  v  ^  v     ^  v  ^  v  ^  v  ^  v   
  E  E  E  E  E  E  E  E     E  E  E  E  E  E  E  E   
--------------------------|--------------------------|
--------------------------|--------------------------|
--5--5--5--5--5--5--5--5--|--5--5--5--5--5--5--5--5--|
--5--5--5--5--5--5--5--5--|--5--5--5--5--5--5--5--5--|
--3--3--3--3--3--3--3--3--|--3--3--3--3--3--3--3--3--|
--------------------------|--------------------------|


     v  ^  v  ^  v  ^  v     ^  ^  ^  ^  ^  ^  ^  ^   
  E  E  E  E  E  E  E  E     E  E  E  E  E  E  E  E   
--------------------------|--------------------------|
--4--3--3--3--3--3--3--3--|--3--3--3--3--3--3--3--3--|
--5--5--5--5--5--5--5--5--|--5--5--5--5--5--5--5--5--|
--5--5--5--5--5--5--5--5--|--5--5--5--5--5--5--5--5--|
--------------------------|--------------------------|
--------------------------|--------------------------|


  ^  v  ^  v  ^  v  ^  v     ^  v  ^  v  ^  v  ^  v   
  E  E  E  E  E  E  E  E     E  E  E  E  E  E  E  E   
--------------------------|--------------------------|
--4--4--4--4--4--4--4--4--|--4--4--4--4--4--4--4--4--|
--5--5--5--5--5--5--5--5--|--5--5--5--5--5--5--5--5--|
--5--5--5--5--5--5--5--5--|--5--5--5--5--5--5--5--5--|
--------------------------|--------------------------|
--------------------------|--------------------------|


  ^  v  ^  v  ^  v  ^  v     ^  v  ^  v  ^  v  ^  v   
  E  E  E  E  E  E  E  E     E  E  E  E  E  E  E  E   
--------------------------|--------------------------|
--1--1--1--1--1--1--1--1--|--1--1--1--1--1--1--1--1--|
--3--3--3--3--3--3--3--3--|--3--3--3--3--3--3--3--3--|
--3--3--3--3--3--3--3--3--|--3--3--3--3--3--3--3--3--|
--1--1--1--1--1--1--1--1--|--1--1--1--1--1--1--1--1--|
--------------------------|--------------------------|


  ^  v  ^  v  ^  v  ^  v     ^  v  ^  v  ^  v  ^  v   
  E  E  E  E  E  E  E  E     E  E  E  E  E  E  E  E   
--------------------------|--------------------------|
--------------------------|--------------------------|
--5--5--5--5--5--5--5--5--|--5--5--5--5--5--5--5--5--|
--5--5--5--5--5--5--5--5--|--5--5--5--5--5--5--5--5--|
--3--3--3--3--3--3--3--3--|--3--3--3--3--3--3--3--3--|
--------------------------|--------------------------|


     v  ^  v  ^  v  ^  v     ^  ^  ^  ^  ^  ^  ^  ^   
  E  E  E  E  E  E  E  E     E  E  E  E  E  E  E  E   
--------------------------|--------------------------|
--4--3--3--3--3--3--3--3--|--3--3--3--3--3--3--3--3--|
--5--5--5--5--5--5--5--5--|--5--5--5--5--5--5--5--5--|
--5--5--5--5--5--5--5--5--|--5--5--5--5--5--5--5--5--|
--------------------------|--------------------------|
--------------------------|--------------------------|


  ^  v  ^  v  ^  v  ^  v     ^  v  ^  v  ^  v  ^  v   
  E  E  E  E  E  E  E  E     E  E  E  E  E  E  E  E   
--------------------------|--------------------------|
--4--4--4--4--4--4--4--4--|--4--4--4--4--4--4--4--4--|
--5--5--5--5--5--5--5--5--|--5--5--5--5--5--5--5--5--|
--5--5--5--5--5--5--5--5--|--5--5--5--5--5--5--5--5--|
--------------------------|--------------------------|
--------------------------|--------------------------|


  ^  v  ^  v  ^  v  ^  v     ^  v  ^  v  ^  v  ^  v   
  E  E  E  E  E  E  E  E     E  E  E  E  E  E  E  E   
--------------------------|--------------------------|
--------------------------|--------------------------|
--7--7--7--7--7--7--7--7--|--7--7--7--7--7--7--7--7--|
--8--8--8--8--8--8--8--8--|--8--8--8--8--8--8--8--8--|
--8--8--8--8--8--8--8--8--|--8--8--8--8--8--8--8--8--|
--6--6--6--6--6--6--6--6--|--6--6--6--6--6--6--6--6--|


  E  E  E  E  E  E  E  E     E  E  E  E  E  E  E  E   
--------------------------|--------------------------|
--------------------------|--------------------------|
--------0--2--0-----3--0--|-----2--0-----3--0-----3--|
-----0-----------0--------|--0--------0--------0-----|
--------------------------|--------------------------|
--3-----------------------|--------------------------|


  E  E  E  E  E  E  E  E     E  E  E  E  E  E  E  E   
--------------------------|--------------------------|
--------------------------|--------------------------|
--------0--2--0-----3--0--|-----2--0-----3--0-----3--|
-----0-----------0--------|--0--------0--------0-----|
--------------------------|--------------------------|
--3-----------------------|--------------------------|


  E  E  E  E  E  E  E  E     E  E  E  E  E  E  E  E   
--------------------------|--------------------------|
-----------1--------2-----|-----1--------2-----------|
--------3--------3--------|--3--------3-----3-----3--|
-----3--------3--------3--|--------3-----------3-----|
--1-----------------------|--------------------------|
--------------------------|--------------------------|


                                         ^  v  ^  v   
  E  E  E  E  E  E  E  E     E  E  E  E  E  E  E  E   
--------------------------|--------------------------|
-----------1--------2-----|-----1--------------------|
--------3--------3--------|--3--------3--------------|
-----3--------3--------3--|--------3-----3--3--3--3--|
--1-----------------------|--------------3--3--3--3--|
--------------------------|--------------1--1--1--1--|


  E  E  E  E  E  E  E  E     H        H           W                 
--------------------------|--5--------3--------|--5----------------|
--------------------------|--5--------3--------|--5----------------|
--------0--2--0-----3--0--|--------------------|-------------------|
-----0-----------0--------|--------------------|-------------------|
--------------------------|--------------------|-------------------|
--3-----------------------|--------------------|-------------------|


  ^                                                                 
  W                   E  E  E  E  E  E  E  E     H        H         
--5----------------|--------------------------|--8--------6--------|
--5----------------|-----------1--------2-----|--8--------6--------|
-------------------|--------3--------3--------|--------------------|
-------------------|-----3--------3--------3--|--------------------|
-------------------|--1-----------------------|--------------------|
-------------------|--------------------------|--------------------|


                      ^                                            
  W                   W                   E  E  E  E  E  E  E  E   
--9----------------|--9----------------|--------------------------|
--9----------------|--9----------------|--------------------------|
-------------------|-------------------|--------------------------|
-------------------|-------------------|--------------------------|
-------------------|-------------------|--------------------------|
-------------------|-------------------|--3--3--3--3--3--3--1--1--|


  E  E  E  E  E  E  E  E     E  E  E  E  E  E  E  E   
--5-----------3-----------|--5-----------------------|
--5-----------3-----------|--5-----------------------|
--3-----------3-----------|--3-----------------------|
--------------------------|--------------------------|
--------------------------|--------------------------|
--3--3--3--3--3--3--3--3--|--3--3--3--3--3--3--1--1--|


  E  E  E  E  E  E  E  E     E  E  E  E  E  E  E  E   
--------------------------|--------------------------|
--------------------------|--------------------------|
--------------------------|--------------------------|
--------------------------|--------------------------|
--------------------------|--------------------------|
--3--3--3--3--3--3--1--1--|--6--6--6--6--6--6--4--4--|


  E  E  E  E  E  E  E  E     E  E  E  E  E  E  E  E   
--8-----------6-----------|--9-----------------------|
--8-----------6-----------|--9-----------------------|
--6-----------6-----------|--6-----------------------|
--------------------------|--------------------------|
--------------------------|--------------------------|
--6--6--6--6--6--6--6--6--|--6--6--6--6--6--6--4--4--|


  E  E  E  E  E  E  E  E     E  E  E  E  E  E  E  E   
--------------------------|--------------------------|
--------------------------|--------------------------|
--------------------------|--------------------------|
--------------------------|--------------------------|
--------------------------|--------------------------|
--6--6--6--6--6--6--4--4--|--3--3--3--3--3--3--1--1--|


  E  E  E  E  E  E  E  E     E  E  E  E  E  E  E  E   
--5-----------3-----------|--5-----------------------|
--5-----------3-----------|--5-----------------------|
--3-----------3-----------|--3-----------------------|
--------------------------|--------------------------|
--------------------------|--------------------------|
--3--3--3--3--3--3--3--3--|--3--3--3--3--3--3--1--1--|


  E  E  E  E  E  E  E  E     E  E  E  E  E  E  E  E   
--------------------------|--------------------------|
--------------------------|--------------------------|
--------------------------|--------------------------|
--------------------------|--------------------------|
--------------------------|--------------------------|
--3--3--3--3--3--3--1--1--|--6--6--6--6--6--6--4--4--|


  E  E  E  E  E  E  E  E     E  E  E  E  E  E  E  E   
--8-----------6-----------|--9-----------------------|
--8-----------6-----------|--9-----------------------|
--6-----------6-----------|--6-----------------------|
--------------------------|--------------------------|
--------------------------|--------------------------|
--6--6--6--6--6--6--6--6--|--6--6--6--6--6--6--4--4--|


                             ^                   ^                 
  E  E  E  E  E  E  E  E     W                   W                 
--------------------------|--3----------------|--3----------------|
--------------------------|--4----------------|--4----------------|
--------------------------|--5----------------|--5----------------|
--------------------------|-------------------|-------------------|
--------------------------|--3----------------|--3----------------|
--6--6--6--6--6--6--4--4--|-------------------|-------------------|


  ^                   ^                   ^                                     
  W                   W                   W                   W                 
-------------------|-------------------|-------------------|-------------------|
--4----------------|--4----------------|--4----------------|--L----------------|
--5----------------|--5----------------|--5----------------|--L----------------|
--5----------------|--5----------------|--5----------------|--L----------------|
--3----------------|--3----------------|--3----------------|--L----------------|
-------------------|-------------------|-------------------|-------------------|


  W                  
-------------------||
-------------------||
-------------------||
-------------------||
-------------------||
-------------------||


-------------------------------------------------------------------------------|

Guitar 2 

Tuning : Standard
Capo: 0



                                     S T T S S S T T S S S T T S S S T T S S  
E||-------|-------|-------|-------|------------------------------------------|
B||-------|-------|-------|-------|------------------------------------------|
G||-------|-------|-------|-------|----0-0-3-0---0-0-3-0---0-0-3-0---0-0-3-0-|
D||-------|-------|-------|-------|--2---------2---------2---------2---------|
A||-------|-------|-------|-------|------------------------------------------|
E||-------|-------|-------|-------|------------------------------------------|


  S T T S S S T T S S S T T S S S T T S S  
------------------------------------------|
------------------------------------------|
----0-0-2-0---0-0-2-0---0-0-2-0---0-0-2-0-|
--2---------2---------2---------2---------|
------------------------------------------|
------------------------------------------|


  S T T S S S T T S S S T T S S S T T S S  
------------------------------------------|
------------------------------------------|
----0-0-3-0---0-0-3-0---0-0-3-0---0-0-3-0-|
--2---------2---------2---------2---------|
------------------------------------------|
------------------------------------------|


  S T T S S S T T S S S T T S S S T T S S    S S S S S S S S S S S S S S S S  
------------------------------------------|--0-------0---5---------0-----0---|
------------------------------------------|----6-------------8---6---------6-|
----0-0-2-0---0-0-2-0---0-0-2-0---0-0-2-0-|--------7-------------------7-----|
--2---------2---------2---------2---------|------7-----7---7---7-----7-------|
------------------------------------------|--0-------------------------------|
------------------------------------------|----------------------------------|


  S S S S S S S S S S S S S S S S    S S S S S S S S S S S S S S S S  
----------0---5---------0-----0---|--0-------0---5---------0-----0---|
--5-6-------------8---6---------6-|----6-------------8---6---------6-|
--------7-------------------7-----|--------7-------------------7-----|
------7-----7---7---7-----7-------|------7-----7---7---7-----7-------|
----------------------------------|--0-------------------------------|
--0-------------------------------|----------------------------------|


                                          ^                ^        ^         
  S S S S S S S S S S S S S S S S    Q    H        Q       H        H         
----------0---5---------0-----0---|-------5--------3----|--5--------5--------|
--5-6-------------8---6---------6-|-------5--------3----|--5--------5--------|
--------7-------------------7-----|-------7--------5----|--7--------6--------|
------7-----7---7---7-----7-------|---------------------|--------------------|
----------------------------------|--0------------------|--------------------|
--0-------------------------------|---------------------|--------------------|


  Q    Q    E  E  E  E     H        H         
-------5-------5--8--6--|--5--------5--------|
-------5----8--5--8--6--|--5--------5--------|
------------7-----------|--7--------6--------|
------------------------|--------------------|
------------------------|--------------------|
------------------------|--------------------|


  S S S S S S S S S S S S S S S S    S S S S S S S S S S S S S S S S  
--0-1-----1---4---0-1-----1---4---|--0-1-----0---5---0-1-----0---5---|
--------3---3---3-------3---3---3-|--------2---2---2-------2---2---2-|
------4---------------4-----------|------2---------------2-----------|
----------------------------------|----------------------------------|
----------------------------------|--0---------------0---------------|
--0---------------0---------------|----------------------------------|


  S S S S S S S S S S S S S S S S    S S S S S S S S S S S S S S S S            
--0-1-----1---4---0-1-----1---4---|--5-3-0-6-5-3---3-------------0-5-|----|----|
--------3---3---3-------3---3---3-|--------------3---6-0-3-6---3-----|----|----|
------4---------------4-----------|--------------------------2-------|----|----|
----------------------------------|----------------------------------|----|----|
----------------------------------|--0---------------0-------0-------|----|----|
--0---------------0---------------|----------------------------------|----|----|


                                         |---3---|  |---3---|   
  E  E  E  E  E  E  E  E     E  E  E  E  E   E   E  E   E   E   
--------------------------|------------------------------------|
--------------------------|-------------------------0h--1h--3--|
--------------------0-----|-----0--2-----0h--2h--3-------------|
--0--2--3--0--2--3-----2--|--3--------3------------------------|
--------------------------|------------------------------------|
--------------------------|------------------------------------|


  E  Q    E  E  Q    E     E  Q    E  E  Q    E     E  Q    E  E  Q    E   
--1---------------------|--0---------------------|--1---------------------|
--3---------------------|--1---------------------|--3---------------------|
--0---------------------|--0---------------------|--0---------------------|
--0--0----0--0--0----0--|--0--0----0--0--0----0--|--0--0----0--0--0----0--|
------------------------|------------------------|------------------------|
------------------------|------------------------|------------------------|


  E  Q    E  E  Q    E     E  Q    E  E  Q    E     E  Q    E  E  Q    E   
--0---------------------|------------------------|------------------------|
--1---------------------|------------------------|------------------------|
--0---------------------|------------------------|------------------------|
--0--0----0--0--0-------|--0--0-------0--0-------|--0--0-------0--0-------|
---------------------3--|----------3----------3--|----------3----------3--|
------------------------|------------------------|------------------------|


  E  Q    E  E  Q    E     E  Q    E  E  Q    E     E  Q    E  E  Q    E   
------------------------|------------------------|------------------------|
------------------------|------------------------|--3---------------------|
------------------------|------------------------|--2---------------------|
--0--0-------0--0-------|--0--0-------0--0-------|--0--0----0--0--0----0--|
----------3----------3--|----------3----------3--|------------------------|
------------------------|------------------------|------------------------|


  E  E  Q    E  E  Q        E  Q    E  E  Q    E     E  Q    E  Q     Q     
--------0----------5----|---8----------7----------|------------------------|
--------0----6-----6----|--10----------8----------|-------------9----10----|
-------------5----------|-------------------------|-------------9----10----|
--0--0-------0--0-------|---0--0----0--0--0----0--|--0--0----0--0----------|
------------------------|-------------------------|------------------------|
------------------------|-------------------------|------------------------|


   E  Q    E   E  Q    E     E  Q    E   E  Q    E     E  E  E  E  E  Q    E   
--12----------------------|-------------10----------|--8-----7-----6----------|
--13----------12----------|-------------10----------|--8-----7-----6----------|
--12----------12----------|-------------------------|-------------------------|
---0--0----0---0--0----0--|--0--0----0---0--0----0--|-----0-----0--0--0----0--|
--------------------------|-------------------------|-------------------------|
--------------------------|-------------------------|-------------------------|


  E  Q    E  E  Q    E     E  Q    E  E  Q    E     E  E  Q    E  E  Q     
-------------5----------|------------------------|--------0----------5----|
-------------5----------|--3---------------------|--------0----6-----6----|
------------------------|--2---------------------|-------------5----------|
--0--0----0--0--0----0--|--0--0----0--0--0----0--|--0--0-------0--0-------|
------------------------|------------------------|------------------------|
------------------------|------------------------|------------------------|


   E  Q    E  E  Q    E     E  Q    E  Q     Q        E  Q    E   E  Q    E   
---8----------7----------|------------------------|--12----------------------|
--10----------8----------|-------------9----10----|--13----------12----------|
-------------------------|-------------9----10----|--12----------12----------|
---0--0----0--0--0----0--|--0--0----0--0----------|---0--0----0---0--0----0--|
-------------------------|------------------------|--------------------------|
-------------------------|------------------------|--------------------------|


  E  E  E  E   E  E   E  E      E  Q    E  E  Q    E     E  Q    E  E  Q    E   
--------8-----10-----12-----|--13---------------------|------------------------|
--------8-----10-----12-----|--13----------6----------|--5----------3----------|
----------------------------|--------------7----------|--5----------3----------|
--0--0-----0---0--0------0--|---0--0----0--0--0----0--|--0--0----0--0--0----0--|
----------------------------|-------------------------|------------------------|
----------------------------|-------------------------|------------------------|


  E  Q    E  E  Q    E     E  Q    E  E  Q    E     E  Q    E  E  Q    E   
------------------------|------------------------|------------------------|
------------------------|------------------------|--3---------------------|
--3---------------------|------------------------|--2---------------------|
--0--0-------0--0-------|--0--0-------0--0-------|--0--0----0--0--0----0--|
----------3----------3--|----------3----------3--|------------------------|
------------------------|------------------------|------------------------|


  E  E  Q    E  E  Q        E  Q    E  E  Q    E     E  Q    E  Q     Q     
--------0----------5----|---8----------7----------|------------------------|
--------0----6-----6----|--10----------8----------|-------------9----10----|
-------------5----------|-------------------------|-------------9----10----|
--0--0-------0--0-------|---0--0----0--0--0----0--|--0--0----0--0----------|
------------------------|-------------------------|------------------------|
------------------------|-------------------------|------------------------|


   E  Q    E   E  Q    E     E  Q    E   E  Q    E     E  E  E  E  E  Q    E   
--12----------------------|-------------10----------|--8-----7-----5----------|
--13----------12----------|-------------10----------|--8-----7-----5----------|
--12----------12----------|-------------------------|-------------------------|
---0--0----0---0--0----0--|--0--0----0---0--0----0--|-----0-----0--0--0----0--|
--------------------------|-------------------------|-------------------------|
--------------------------|-------------------------|-------------------------|


  E  Q    E  E  Q    E     E  Q    E  E  Q    E     E  E  E  E  Q    E  E   
-------------3----------|--1---------------------|-------------------8-----|
-------------3----------|--1---------------------|--------8-----9----9-----|
------------------------|--1---------------------|--------8-----8----------|
--0--0----0--0--0----0--|--3--3----3--3--3----3--|--3--3-------------------|
------------------------|------------------------|--------8--8----------8--|
------------------------|------------------------|-------------------------|


   E  Q    E   E  Q    E     E  Q    E   Q     Q        E  Q    E   E  Q    E   
--11----------10----------|-------------------------|--15----------------------|
---9-----------9----------|-------------12----13----|--16----------15----------|
--------------------------|-------------12----12----|---0--0----0--15----------|
--------------------------|-------------12----------|---------------0--0----0--|
---8--8----8---8--8----8--|--8--8----8--------------|--------------------------|
--------------------------|-------------------------|--------------------------|


  E  E   E  E   E  E   E  E      E  Q.     E  Q    E     E  Q    E  Q    Q     
--------11-----13-----15-----|--16--------------------|--4----------3----4----|
--------11-----13-----15-----|--16--------------------|--4----------3----4----|
-----------------------------|---0--0-----------------|--5--------------------|
--0--0------0------0------0--|------------------------|-----------------------|
-----------------------------|------------------------|-----------------------|
-----------------------------|-------------4--4----4--|--4--4----4--4---------|


  E  Q    E  Q    Q        E   Q     E   Q     Q       W                 
--8----------6----8----|--11------------10----11----|--8----------------|
--8----------6----8----|--11------------11----------|--8----------------|
-----------------------|----------------------------|--8----------------|
-----6----6--6---------|----------------------------|-------------------|
-----------------------|------11----11--------------|-------------------|
-----------------------|----------------------------|--8----------------|


  |---3---|        |---3---|                                        
  E   E   E  E  E  E   E   E  E  E      E   Q     E   E   Q     E   
-------------6--8-------------6--8--|--11--------------------------|
--6h--8h--9--------6h--8h--9--------|--11--------------------------|
------------------------------------|------------------------------|
------------------------------------|------------------------------|
------------------------------------|------------------------------|
------------------------------------|------11----11--11--11----11--|


   E  Q    E  E  Q    S  S     H        E  Q    E     E  Q    E  Q    Q     
--10-----------------------|--16-------------------|--4----------3----4----|
---9-----------------------|--16-------------------|--4----------3----4----|
--10-----------------------|-----------------------|--5--------------------|
------0----0--0--0---------|-----------------------|-----------------------|
----------------------4h-5-|-----------------------|-----------------------|
---0-----------------------|------------4--4----4--|--4--4----4--4---------|


  E  Q    E  Q    Q        E   Q     E   Q     Q       W                 
--8----------6----8----|--11------------10----11----|--8----------------|
--8----------6----8----|--11------------11----------|--8----------------|
-----------------------|----------------------------|--8----------------|
-----6----6--6---------|----------------------------|-------------------|
-----------------------|------11----11--------------|-------------------|
-----------------------|----------------------------|--8----------------|


  |--3--|        |--3--|                                                       
  E  E  E  E  E  E  E  E  E  E     Q    E  E  H           Q    E  E  H         
--------------------------------|--6-------------------|--4-------------------|
-----------6--8-----------6--8--|--4-------------------|--4-------------------|
--5--7--8--------5--7--8--------|----------------------|----------------------|
--------------------------------|----------------------|----------------------|
--------------------------------|--3----3--3--3--------|--3----3--3--3--------|
--------------------------------|----------------------|----------------------|


  E  E  E  E  E  E  E  E     E  E  E  E  E  E  E  E   
--3--2--3-----------3--2--|--------3--2--3-----------|
-----------3-----3--------|-----3-----------3--1--3--|
--------------1-----------|--2-----------------------|
--------------------------|--------------------------|
--------------------------|--------------------------|
--------------------------|--------------------------|


  E  E  E  E  E  E  E  E     E  E  E  E  E  E  E  E     W                 
--3--2--3-----------3--2--|--------3--2--3-----------|-------------------|
-----------3-----3--------|-----3-----------3--0--3--|--1----------------|
--------------1-----------|--2-----------------------|--0----------------|
--------------------------|--------------------------|-------------------|
--------------------------|--------------------------|--3----------------|
--------------------------|--------------------------|-------------------|


  |---3---|  |---3---|  |---3---|  |--3--|                       
  E   E   E  E   E   E  E   E   E  E  E  E     W                 
-----------------------------------8--6--4--|-------------------|
-------------6h--8p--6--9p--8p--6-----------|--3----------------|
--5h--7h--8---------------------------------|--3----------------|
--------------------------------------------|--3----------------|
--------------------------------------------|--3----------------|
--------------------------------------------|-------------------|


  |--3--|  |---3---|  |---3---|                            
  E  E  E  E   E   E  E   E   E  Q       W                 
--8--6--4-----------------------------|-------------------|
-----------8p--6p--4-------------8----|-------------------|
----------------------7p--4h--5--7----|--8----------------|
--------------------------------------|--8----------------|
--------------------------------------|-------------------|
--------------------------------------|--8----------------|


  |---3---|  |----3---|  |---3---|  |---3---|   
  E   E   E  E   E    E  E   E   E  E   E   E   
-----------------------------------------------|
-------------------------4h--6h--8--6h--8h--9--|
--5h--7h--8--7h--8h--10------------------------|
-----------------------------------------------|
-----------------------------------------------|
-----------------------------------------------|


  |---3---|  |---3---|  |----3---|  |---3---|   
  E   E   E  E   E   E  E   E    E  E   E   E   
--3h--4h--6--4h--6h--8--7h--8h--10--8--11--13--|
-----------------------------------------------|
-----------------------------------------------|
-----------------------------------------------|
-----------------------------------------------|
-----------------------------------------------|


             |---3---|  |--3--|                           
   H         E   E   E  E  E  E      Q    Q    Q    Q     
--15--------13--11---------------|-----------------------|
--------------------12-----------|-----------------------|
------------------------8--------|-----------------------|
---------------------------8--9--|--10-------------------|
---------------------------------|--10-------------------|
---------------------------------|---8----8----8----8----|


  E  Q    E  E  E  E  E     E  Q    E  E  Q    E   
--3----------------------|------------------------|
--4----------6-----4-----|--3---------------------|
-------------5-----3-----|--3---------------------|
-------------------------|--3---------------------|
-----3----3--3--3-----3--|--3--3----3--3--3----3--|
-------------------------|------------------------|


  |---3---|                                             
  E   E   E  Q    E  E  E  E     E  Q    E  E  E  Q     
------------------------------|------------------------|
--6h--8p--6--4----6-----3--6--|--4----------------3----|
---------------------5--------|--5----------------3----|
------------------------------|-------------------3----|
------------------------------|--3--3----3--3--3-------|
------------------------------|------------------------|


  E  Q    E  E  Q    E     E  E  E  E  E  E  E  E   
------------------------|--------------------------|
--1---------------------|--------------6--------6--|
--0---------------------|--7--------7--------7-----|
------------------------|--------8--------8--------|
--3--3----3--3--3----3--|--8--8--------------------|
------------------------|--------------------------|


  E  E  E  E   E  E  E   E      E   E   E   E   E   E   E   E   
--6--------6--10-----6--10--|--------------------------10------|
--------6---------6---------|--10--11----------10--------------|
-----7----------------------|--------------12------------------|
----------------------------|--12------12----------12------12--|
----------------------------|----------------------------------|
----------------------------|----------------------------------|


   E   E   E   E   E   E   E   E      E   E   E   E   E   E   E   E   
----------------------------------|--------------------------10------|
--13------11--10----------10--11--|--10--11----------10--------------|
----------------------12----------|--------------12------------------|
------12----------12--------------|--12------12----------12------12--|
----------------------------------|----------------------------------|
----------------------------------|----------------------------------|


   E   E   E   E   E   E   E   E      E   E   E   E   E   E   E   E   
----------------------------------|--------------------------13------|
--13------11--10----------10--11--|--13--14----------13--------------|
----------------------12----------|--------------15------------------|
------12----------12--------------|----------15----------15------15--|
----------------------------------|----------------------------------|
----------------------------------|----------------------------------|


   E   E   E   E   E   E   E   E      E   E   E   E   E   E   E   E   
----------------------------------|--------------------------13------|
--16------14--13----------13--14--|--13--14----------13--------------|
----------------------15----------|--------------15------------------|
------15----------15--------------|----------15----------15------15--|
----------------------------------|----------------------------------|
----------------------------------|----------------------------------|


   E   E   E   E   E   E   E   E      E   E   E   E   E   E   E   E   
----------------------------------|--------------------------10------|
--16------14------13--14--13--14--|--10--11----------10--------------|
----------------------------------|--------------12------------------|
------15------15------------------|--12------12----------12------12--|
----------------------------------|----------------------------------|
----------------------------------|----------------------------------|


   E   E   E   E   E   E   E   E      E   E   E   E   E   E   E   E   
----------------------------------|--------------------------10------|
--13------11--10----------10--11--|--10--11----------10--------------|
----------------------12----------|--------------12------------------|
------12----------12--------------|--12------12----------12------12--|
----------------------------------|----------------------------------|
----------------------------------|----------------------------------|


   E   E   E   E   E   E   E   E      E   E   E   E   E   E   E   E   
----------------------------------|--------------------------13------|
--13------11--10----------10--11--|--13--14----------13--------------|
----------------------12----------|--------------15------------------|
------12----------12--------------|----------15----------15------15--|
----------------------------------|----------------------------------|
----------------------------------|----------------------------------|


   E   E   E   E   E   E   E   E      E   E   E   E   E   E   E   E   
----------------------------------|--------------------------13------|
--16------14--13----------13--14--|--13--14----------13--------------|
----------------------15----------|--------------15------------------|
------15----------15--------------|----------15----------15------15--|
----------------------------------|----------------------------------|
----------------------------------|----------------------------------|


   E   E   E   E   E   E   E   E      E   E   E   E   E   E   E   E   
--------------------------13------|--------------------------10------|
--16------14------13--14----------|--10--11----------10--------------|
----------------------------------|--------------12------------------|
------15------15--------------15--|--12------12----------12------12--|
----------------------------------|----------------------------------|
----------------------------------|----------------------------------|


   E   E   E   E   E   E   E   E      E   E   E   E   E   E   E   E   
----------------------------------|--------------------------10------|
--13------11--10----------10--11--|--10--11----------10--------------|
----------------------12----------|--------------12------------------|
------12----------12--------------|--12------12----------12------12--|
----------------------------------|----------------------------------|
----------------------------------|----------------------------------|


   E   E   E   E   E   E   E   E      E   E   E   E   E   E   E   E   
----------------------------------|--------------------------13------|
--13------11--10----------10--11--|--13--14----------13--------------|
----------------------12----------|--------------15------------------|
------12----------12--------------|----------15----------15------15--|
----------------------------------|----------------------------------|
----------------------------------|----------------------------------|


   E   E   E   E   E   E   E   E      E   E   E   E   E   E   E   E   
----------------------------------|--------------------------13------|
--16------14--13----------13--14--|--13--14----------13--------------|
----------------------15----------|--------------15------------------|
------15----------15--------------|----------15----------15------15--|
----------------------------------|----------------------------------|
----------------------------------|----------------------------------|


   E   E   E   E   E   E   Q       W                   W                 
--------------------------13----|-------------------|-------------------|
--16------14------13--14--------|-------------------|-------------------|
--------------------------------|-------------------|-------------------|
------15------15----------------|-------------------|-------------------|
--------------------------------|-------------------|-------------------|
--------------------------------|-------------------|-------------------|


                      ^                                       ^                 
  W                   W                   W                   W                 
-------------------|-------------------|-------------------|-------------------|
--5----------------|--5----------------|--6----------------|--6----------------|
--5----------------|--5----------------|--6----------------|--6----------------|
--7----------------|--7----------------|--8----------------|--8----------------|
-------------------|-------------------|-------------------|-------------------|
-------------------|-------------------|-------------------|-------------------|


                        ^                                              
   W                    W                    Q     E   E  Q     E  E   
--------------------|--------------------|----------------------------|
---8----------------|---8----------------|----------------------------|
---8----------------|---8----------------|----------------8--------8--|
--10----------------|--10----------------|--10--------10-------10-----|
--------------------|--------------------|--10----10------------------|
--------------------|--------------------|---8------------------------|


                            ^                                                
  Q    E  E  Q    E  E      Q     E   E   Q     E   E      W                 
-------------8-------8--|--11------------11--------11--|--15----------------|
--8-------8-------8-----|--13--------13--------13------|--------------------|
-------8----------------|--12----12--------------------|--------------------|
------------------------|------------------------------|--------------------|
------------------------|------------------------------|--------------------|
------------------------|------------------------------|--------------------|


   ^                                                          
   W                   W                   W                  
--15----------------|--L----------------|-------------------||
--13----------------|--L----------------|-------------------||
--12----------------|--L----------------|-------------------||
--------------------|-------------------|-------------------||
--------------------|-------------------|-------------------||
--------------------|-------------------|-------------------||




Duration Legend
---------------
W - whole
H - half
Q - quarter
E - 8th
S - 16th
T - 32nd
X - 64th
. - note dotted
|-n-|  - n-tuplets


Tablature Legend
----------------
L - tied note
x - dead note
g - grace note
(n) - ghost note
> - accentuded note
NH - natural harmonic
AH - artificial harmonic
TH - tapped harmonic
SH - semi harmonic
PH - pitch harmonic
h - hammer on
p - pull off
b - bend
br - bendRelease
pb - preBend
pbr - preBendRelease
brb - bendReleaseBend
\n/ - tremolo bar dip
\n - tremolo bar dive
-/n - tremolo bar Release up
/n\ - tremolo bar inverted dip
/n - tremolo bar return
-\n - tremolo bar Release down
S - shift slide
s - legato slide
/ -  slide into from below or out of upwards
\ -  slide into from above or out of downwards
~ - vibrato
W - wide vibrato
tr - trill
TP - tremolo picking
T - tapping
S - slap
P - pop
< - fade in
^ - brush up
v - brush down

Login or Register to remove this ad.

2 comments on The Extreme

My mind was violently blown

5

My mind was violently blown in a thousand pieces of pure awesomeness.

Damn, thanks a lot for sharing!

One Word: AWESOME Great job

5

One Word: AWESOME
Great job