Ads

The Extreme (Final Fantasy VIII) Guitar Tab

Submitted: Jun 11, 2010 by Daugreano

4
Average: 4 (1 vote)
Download | Listen
Game: Final Fantasy VIII
Composer(s): Nobuo Uematsu
Style: Alternate picking, Transcription
Series: Final Fantasy

AutoScroll: Slow | Medium | Fast
Song: The Extreme
Game: Final Fantasy VIII
Composer: Nobuo Uematsu
Tabbed by: Daugreano


Guitar:

 
   E   E   E   E   E   E   E   E     E   E   E   E   E   E   E   E     E   E   E   E   E   E   E   E
E|---------------------------------|---------------------------------|---------------------------------|
B|---------------------------------|---------------------------------|---------------------------------|
G|---------------------------------|---------------------------------|---------------------------------|
D|-0-------0---2---0-------2---0---|-----3---0-------2---0-------3---|-0-----------2-----------2-------|
A|-----1---------------1-----------|-1-----------1-----------1-------|-----0---4-------4---0-------4---|
E|---------------------------------|---------------------------------|---------------------------------|


       Repeat from the beginning...                                2x                                2x
   E   E   E   E   E   E   E   E     E   E   E   E   E   E   E   E     E   E   E   E   E   E   E   E
E|---------------------------------|---------------------------------|---------------------------------|
B|---------------------------------|---------------------------------|---------------------------------|
G|---------------------------------|-----0---3---0-------0---3---0---|-----0---2---0-------0---2---0---|
D|-----3-----------2-----------3---|-2---------------2---------------|-2---------------2---------------|
A|-0-------4---0-------4---0-------|---------------------------------|---------------------------------|
E|---------------------------------|---------------------------------|---------------------------------|
 

                                                                       Repeat the next four measures 3x,
                                 2x                                2x   as a group NOT individually...
   E   E   E   E   E   E   E   E     E   E   E   E   E   E   E   E     E   E   E   E   E   E   E   E
E|---------------------------------|---------------------------------|---------------------------------|
B|---------------------------------|---------------------------------|---------------------------------|
G|-----0---3---0-------0---3---0---|-----0---2---0-------0---2---0---|-------------------------2-------|
D|-2---------------2---------------|-2---------------2---------------|-2---3-------0---2---------------|
A|---------------------------------|---------------------------------|---------0-----------0-------0---|
E|---------------------------------|---------------------------------|---------------------------------|

   E   E   E   E   E   E   E   E     E   E   E   E   E   E   E   E     E   E   E   E   E   E   E   E
E|---------------------------------|---------------------------------|---------------------------------|
B|---------------------------------|---------------------------------|---------------------------------|
G|-0-------------------------------|-------------------------2-------|-0-----------------------2-------|
D|---------3---2-------0---2-------|-2---3-------0---2---------------|---------3-------2---3-----------|
A|-----0-----------0-----------0---|---------0-----------0-------0---|-----0-------0---------------0---|
E|---------------------------------|---------------------------------|---------------------------------|

    

                                 2x                                2x                                2x
   E   E   E   E   E   E   E   E     E   E   E   E   E   E   E   E     E   E   E   E   E   E   E   E
E|---------------------------------|---------------------------------|---------------------------------|
B|---------------------------------|---------------------------------|---------------------------------|
G|-------------------------1-------|-------------------------2-------|-------------------------1-------|
D|-2---3-------0---3-----------0---|-2---3-----------3---2-----------|-2---3-------0---3-----------0---|
A|---------2-----------2-----------|---------0---4---------------4---|---------2-----------2-----------|
E|---------------------------------|---------------------------------|---------------------------------|


   E   E   E   E   E   E   E   E     E   E   E   E   E   E   E   E  
E|---------------------------------|---------------------------------|
B|---------------------------------|---------------------------------|
G|-2---0-------3---2---0-------0---|-----------------------------2---|
D|---------2---------------0-------|-3-------0---2-------0---2-------|
A|---------------------------------|-----2-----------0---------------|
E|---------------------------------|---------------------------------|


This might be the end of the tab but it is only the beginning of the song...
Login or Register to remove this ad.