Ads

Drifting (Final Fantasy VIII) Guitar Tab

Submitted: Mar 24, 2011 by bigmacian

5
Average: 5 (4 votes)
Download | Listen
Game: Final Fantasy VIII
Composer(s): Nobuo Uematsu
Style: Transcription
Series: Final Fantasy

AutoScroll: Slow | Medium | Fast
Drifting
Final Fantasy VIII
Nobuo Uematsu
Tabbed by bigmacian
25/03/2011
Drifting
Final Fantasy VIII
Nobuo Uematsu
Tabbed by bigmacian
25/03/2011


W - Whole tone
H - Half tone
Q - Quarter tone

This piece is in 4/4 throughout and is very slow

Tuning, standard EADGBE

The fingering can be tricky (and painful...)

   Q  Q  H       W     Q  Q  Q  Q     Q  Q  H     W
|-------------|-----|-----------6--|--------1----|-(1)-|
|--6--3--4----|-(4)-|--6--3--4-----|--1--4-------|-----|
|--5--5--5----|-(5)-|--5--5--3--5--|--3-(3)-3----|-(3)-|
|--8--6--5----|-(5)-|--3--6--5-----|--1-(1)-0----|-(0)-|
|-------------|-----|-----------8--|-------------|-----|
|-------------|-----|--------------|-------------|-----|


   Q  Q  H       W     Q  Q  Q  Q     Q  Q  H      W
|-------------|-----|-----------6--|-----2--4----|-(4)-|
|--6--3--4----|-(4)-|--6--3--4-----|--4----------|-----|
|--5--5--5----|-(5)-|--5--5--5--6--|--4-(4)-4----|-(4)-|
|--5--8--6----|-(6)-|--5--8--6--4--|--2-(2)-2----|-(2)-|
|-------------|-----|--------------|-------------|-----|
|-------------|-----|--------------|-------------|-----|


   Q  Q  Q  Q      Q  Q  H       W     Q  Q  Q  Q      Q  
|--8--5--3--10--|-------------|-----|--8--5--3--10--|-----9----
|--8--6--4---8--|--6--8--9----|-(9)-|--8--6--4---8--|--6-------
|--7--7--7------|--8--7--8----|-(8)-|--7--7--7------|--8-(8)---
|-----------10--|--8--8--6----|-(6)-|-----------10--|--8-(8)---
|---------------|-------------|-----|---------------|----------
|---------------|-------------|-----|---------------|----------

The last chord is to be held for as long as needed. Repeat all bars.

Enjoy! :D
Login or Register to remove this ad.

5 comments on Drifting

oh god! like, like, like!!!

5

oh god! like, like, like!!!

Thank you!!!!

Much appreciated, my first tab!

mmmm

5

nice FF8 tab for a song i haven't seen tabbed. i prefer playing that 8 on the a string near the beginning as a 3 on the d string

Good point

Thanks for your comment.

I actually agree, that way feels better. Thank you!

Simple and as good as it gets!

5

Wonderful.