Ads

Blue Fields (Final Fantasy VIII) Guitar Tab

Submitted: Mar 31, 2011 by Max_depa

5
Average: 5 (8 votes)
Download | Listen
Game: Final Fantasy VIII
Composer(s): Nobuo Uematsu
Style: Arrangement, Fingerstyle
Series: Final Fantasy

AutoScroll: Slow | Medium | Fast
Blue Fields - Final Fantasy VIII
Arranged by: Max_depa
Composed by: Nobuo Eumatsu    

Capo: 3

     E  E  E  E  E  E     E  E  E  Q.        E  E  E  E  E  E   
E||--------------------|------------------|--------------------|
B||--------0--0--------|--------0--0------|--------0--0--------|
G||--------------0-----|------------------|--------------0-----|
D||-----2-----------0--|-----2------------|-----2-----------0--|
A||--0-----------------|--0---------------|--0-----------------|
E||-----------------0--|------------------|-----------------0--|


  E  E  E  Q.          E  E  E  E  E  E     E  E  E  E  E  E   
------------------||---3-----------------|-----------------0--|
--------0--0------||---------0--3--------|--------0--0--3-----|
------------------||*-----------4--0-----|--------------------|
-----2------------||*-----2-----------0--|-----2--------------|
--0---------------||---0-----------------|--0-----------------|
------------------||------------------0--|--------------------|


  E  E  E  E  E  E     E  E  E  E  E  E     E  E  E  E  E  E   
--------------------|--------------------|--0--3--2-----------|
--3-----0--1--------|--------0--0--1--3--|--------0--3--------|
--------------0-----|--------------------|-----------4--0-----|
-----2-----------0--|-----2--------------|-----2-----------0--|
--0-----------------|--0-----------------|--0-----------------|
-----------------0--|--------------------|-----------------0--|


  E  E  E  E  E  E     E  S S S S E  S S S S    E  S S S S E  S S S S  
--------------------|--0---------------------|--2------0-3-7--5-3-2-1-|
--------0--0--1--3--|-------------0------0-3-|-----0-1----------------|
--------------------|------------------0-----|------------------------|
-----2--------------|--2--------2----4---2---|------------------------|
--0-----------------|--0--0-2-3--------------|--0---------------------|
--------------------|------------------------|------------------------|


                                                                 |-3-|  
  S S S S S S E  E  E     E  S S S S S S E  E     E  E  E  E  E  S S S  
--3--------------------|--------------------0--|-----------------------|
------0---0---3--------|-----------------3-----|--3-----0--1-----------|
----2---2---2-4--0-----|-----------------------|--------------0--------|
--------------------0--|-----2-0---------------|-----2-----------------|
--0--------------------|--0--------0-3-L-------|--0--------------3-2-1-|
--------------------0--|---------0-------------|-----------------------|


  E  E  E  E  E  E     E  E  E  E  E  E     E  E  E  E  E  E   
--------------------|--------------------|--------------------|
--------0--0--1--3--|--1-----0--0--------|--------0--0--0-----|
--------------------|--------------0-----|-----------------0--|
-----2--------------|-----2-----------0--|-----2--------------|
--0-----------------|--0-----------------|--0-----------------|
--------------------|-----------------0--|--------------------|


  E  E  E  E  E  E     E  E  E  E  E  E     E  E  E  E  E  E   
--------0-----0-----|-----3--5--3--5--3--|--------------------|
-----3-----3-----3--|--------------------|--1-----0--1-----3--|
--2-----------------|--------------------|--------------0-----|
-----------------0--|-----2--------------|-----2-----------0--|
--0-----------------|--0-----------------|--0-----------------|
-----------------0--|--------------------|-----------------0--|


  E  E  E  E  E  E     E  E  E  E  E  E     E  E  E  Q.      
--0-----------------|--------------------|------------------|
--------1--0--------|--------0--0--------|--------0--0------|
--------------2--0--|--2-----------0-----|------------------|
-----2--------------|-----2-----------0--|-----2------------|
--0-----------------|--0-----------------|--0---------------|
--------------------|-----------------0--|------------------|


  E  E  E  E  E  E     E  E  E  E  E  E     E  E  E  E  E  E   
--------------------|--0-----3-----2-----|--0-----------------|
--1-----0--1-----3--|--------0--0-----3--|--------0--0--------|
--------------0-----|--------------------|--------------0-----|
-----2-----------0--|-----2--------------|-----2-----------0--|
--0-----------------|--0-----------------|--0-----------------|
-----------------0--|--------------------|-----------------0--|


  E  E  E  Q.        E  E  E  E  E  E     E  E  E  E  E  E   
------------------|--5--------0-----5--|--3-----2-----0-----|
--------0--0------|--------0-----------|--------0--0-----3--|
------------------|--2-----------0-----|--------------------|
-----2------------|-----2-----------0--|-----2--------------|
--0---------------|--0-----------------|--0-----------------|
------------------|-----------------0--|--------------------|


  E  E  E  E  E  E     E  E  E  Q.        E  E  E  E  E  E   
--0--------------0--|------------------|--------------------|
--1-----0--1--------|--3-----0--0------|--1-----0--1-----3--|
--------------0-----|------------------|--2-----------2-----|
-----2-----------0--|-----2------------|-----3-----------3--|
--0-----------------|--0---------------|--------------------|
-----------------0--|------------------|--1--------------1--|


  E  E  E  E  E  E     E  E  E  E  E  E     E  E  E  E  E  E   
--0-----------------|--------------------|--------------------|
--------1--1--------|--------0--0--------|--------0--0--------|
--------------2--0--|--2-----------0-----|--------------0-----|
-----4--------------|-----2-----------0--|-----2-----------0--|
--0-----------------|--0-----------------|--0-----------------|
--2-----1-----------|--0--------------0--|--------------------|


  E  E  E  E  E  E     E  E  E  E  E  E       E  E  E  E  E  E   
--------------------|---------------------||--------------------|
--------0--0--------|--------0--0---------||--------0--0--1--3--|
--------------0-----|--------------0-----*||--------------------|
-----2-----------0--|-----2-----------0--*||-----2--------------|
--0-----------------|--0------------------||--0-----------------|
-----------------0--|---------------------||--------------------|


  E  E  E  E  E  E     E  E  E  E  E  E     H.             
--0--3--2-----------|--------------------|--0------------||
--------0--3--------|--------0--0--1--3--|---------------||
-----------4--0-----|--------------------|---------------||
-----2-----------0--|-----2--------------|--2------------||
--0-----------------|--0-----------------|--0------------||
-----------------0--|--------------------|---------------||




Duration Legend
---------------
W - whole
H - half
Q - quarter
E - 8th
S - 16th
T - 32nd
X - 64th
. - note dotted
|-n-|  - n-tuplets


Tablature Legend
----------------
L - tied note
x - dead note
g - grace note
(n) - ghost note
> - accentuded note
NH - natural harmonic
AH - artificial harmonic
TH - tapped harmonic
SH - semi harmonic
PH - pitch harmonic
h - hammer on
p - pull off
b - bend
br - bendRelease
pb - preBend
pbr - preBendRelease
brb - bendReleaseBend
\n/ - tremolo bar dip
\n - tremolo bar dive
-/n - tremolo bar Release up
/n\ - tremolo bar inverted dip
/n - tremolo bar return
-\n - tremolo bar Release down
S - shift slide
s - legato slide
/ -  slide into from below or out of upwards
\ -  slide into from above or out of downwards
~ - vibrato
W - wide vibrato
tr - trill
TP - tremolo picking
T - tapping
S - slap
P - pop
< - fade in
^ - brush up
v - brush down
Login or Register to remove this ad.

6 comments on Blue Fields

!!!

Oh god, thanks so much for tabbing this! I've been waiting for an arrangement thats easier than stamens but still fun to play, this is perfect!

i'm glad to read this^^ as i

i'm glad to read this^^ as i told on the forum my intent was not to compete but to make a melody that can be appreciated by everybody.. thanks for your comment!=D

Wow! Finally a version of

5

Wow! Finally a version of this song that I manage to play!
One hell of an arrangement, this one. Simple, yet delightful.
Thanks a lot for sharing it with us!

You're very kind :)

You're very kind :)

Amazing

Incredible tab, nice and playable - top job :D

thanks!^^

thanks!^^