Ads

Balamb Garden (Final Fantasy VIII) Guitar Tab

Submitted: Jun 10, 2009 by Xion_Blico (Last updated: Feb 04, 2010)

4.857145
Average: 4.9 (7 votes)
Download | Listen
Game: Final Fantasy VIII
Composer(s): Nobuo Uematsu
Style: Arrangement, Fingerstyle
Series: Final Fantasy

AutoScroll: Slow | Medium | Fast
Name of song		Balamb Garden
Name of game		Final Fantasy VIII
Composer of song	Nobuo Uematsu
Name of tabber		Edo Pablico
Date tab was made	June 4, 2009


e||-----------0-----------------------|---------0-----------------------|
B||*------------------3-------1-------|-----------------3-------1-------|
G||-------2-------2-------2-------2---|-----2-------2-------2-------2---|
D||-----------------------------------|---------------------------------|
A||*----------------------------------|---------------------------------|
E||---1-------------------------------|-1-------------------------------|

e|---------0-----------------------|---------------------------------|
B|-----------------3-------1-------|-0---1---3---1-------------------|
G|-----2-------2-------2-------2---|-----2-------2-------2-------2---|
D|---------------------------------|---------------------------------|
A|---------------------------------|---------------------------------|
E|-1-------------------------------|-1-------------------------------|

e|---------0-----0-----------------|---------0-----0-----------------|
B|-------1---------3-----3-1-----1-|-------1---------3-----3-1-----1-|
G|-----2-------2-------2-------2---|-----2-------2-------2-------2---|
D|---3-------3-------3-------3-----|---3-------3-------3-------3-----|
A|---------------------------------|---------------------------------|
E|-1-------------------------------|-1-------------------------------|

e|---------0-----0-----------------|---------------------------------|
B|-------1---------3-----3-1-----1-|-0---1---3---1-------------------|
G|-----2-------2-------2-------2---|-----2-------2-------2-------2---|
D|---3-------3-------3-------3-----|---------------------------------|
A|---------------------------------|---------------------------------|
E|-1-------------------------------|-1-------------------------------|

e|---------0-----------------------|---------0-----------------------|
B|-----------------3-------1-------|-----------------3-------1-------|
G|-----2-------2-------2-------2---|-----2-------2-------2-------2---|
D|-----3-------3-------3-------3---|-----3-------3-------3-------3---|
A|---------------------------------|---------------------------------|
E|-1-------------------------------|-1-------------------------------|


e|-------------------------0-------|-2---0---3---2---7---5-----------|
B|-----------------3---2-------3---|-------------------------2---3---|
G|-----2---1---2-------------------|---------------------------------|
D|-0---------------0---------------|-0---------------0---------------|
A|---------------------------------|---------------------------------|
E|---------------------------------|---------------------------------|

e|-5-------------------------------|---------------------------------|
B|-----5-------5-------5-------5---|-----5-------5-------5-------5---|
G|-----5-------5-------5-------5---|-----5-------5-------5-------5---|
D|---------------------------------|---------------------------------|
A|-0-------------------------------|-0-------------------------------|
E|---------------------------------|---------------------------------|

e|-------------------------0-------|-2---0---3---2---7---5-----------|
B|-----------------3---2-------3---|-------------------------2---3---|
G|-----2---1---2-------------------|---------------------------------|
D|-0---------------0---------------|-0---------------0---------------|
A|---------------------------------|---------------------------------|
E|---------------------------------|---------------------------------|

e|-5-----------5---------------3-2-|-3-------------------------------|
B|-----5-------5-----------5-------|-----3-------3-------3-------3---|
G|-----5---------------5-----------|-----0-------0-------0-------0---|
D|---------------------------------|---------------------------------|
A|-0-------------------------------|---------------------------------|
E|---------------------------------|-3-------------------------------|

e|-3---2---3-----------------------|-----------------5-------3---2---|
B|-------------3-------3-------3---|-----3-------3-------3-----------|
G|-----0-------0-------0-------0---|-----0-------0-------0-----------|
D|---------------------------------|---------------------------------|
A|---------------------------------|---------------------------------|
E|-3-------------------------------|-3-------------------------------|

e|-3---2---3-----------------------|-------------------------0-------|
B|-------------3-------3-------3---|-----3-------3-------3-------3---|
G|-----3-------3-------3-------3---|-----3-------3-------3-------3---|
D|---------------------------------|---------------------------------|
A|---------------------------------|---------------------------------|
E|-3-------------------------------|-3-------------------------------|

e|-------------2-------------------|-------------2-----------0---2---|
B|-----3---------------3-------3---|-----3---------------3-----------|
G|-----2-------2-------2-------2---|-----2-------2-------2-----------|
D|-0-------------------------------|-0-------------------------------|
A|---------------------------------|---------------------------------|
E|---------------------------------|---------------------------------|

e|-0-------------------------------|-----0---------------------------|
B|-----1-------1-------1-------1---|----1----------------------------|
G|-----0-------0-------0-------0---|---0-----------------------------|
D|---------------------------------|--2------------------------------|
A|-3-------------------------------|-3-------------------------------|
E|---------------------------------|---------------------------------|

e|-------------0---2-----------6---|-4-------0-------0---------------|
B|---------4-------4---------------|-0-------0-------0---------------|
G|---------4-----------------------|-1---1-------1-------------------|
D|---------------------------------|---------------------------------|
A|-2-------------------------------|---------------------------------|
E|---------------------------------|-0-------------------------------|

e|-----------------------------4---|-1-------2-------2---------------|
B|-------------0---2---------------|-----2-----------2---------------|
G|---------3-------1---------------|---------------------------------|
D|---------4-----------------------|---------------------------------|
A|---------------------------------|-2-------------------------------|
E|-2---------------0---------------|---------------------------------|

e|-------------0---2-----------6---|-4-------0-------0---------------|
B|---------4-------4---------------|-0-------0-------0---------------|
G|---------4-----------------------|-1---1-------1-------------------|
D|---------------------------------|---------------------------------|
A|-2-------------------------------|---------------------------------|
E|---------------------------------|-0-------------------------------|

e|---------------------------------|---------------------------------||
B|-------------0---2-----------2---|-2------------------------------*||
G|---------3-------1---------------|---------4-------4---------------||
D|---------4-----------------------|-------------4-------------------||
A|---------------------------------|-2------------------------------*||
E|-2---------------0---------------|---------------------------------||
Login or Register to remove this ad.

4 comments on Balamb Garden

Amazing

5

Amazing

thx

thx..

this song really can calms my mind when plays it, sometimes i get fall asleep too

very nice

5

I like how your Tabs are straight to the point and you play it just as you hear it.

Awesome

5

Really nice piece man thanks for it, I enjoyed playing it.