Ads

Who Are You? (Final Fantasy VII) Guitar Tab

Submitted: Aug 22, 2012 by iamHoustonian

5
Average: 5 (1 vote)
Download | Listen
Game: Final Fantasy VII
Composer(s): Nobuo Uematsu
Style: Transcription
Series: Final Fantasy

AutoScroll: Slow | Medium | Fast
Who are you?
Final Fantasy VII
Composer: Nobuo Uematsu
Tabbed By: iamHoustonian
Date Tabbed: 8/21/2012


Use a delay effect

Part I

e--------17----------17----------17----------17-----
B--14-15----15-14-15----15-14-15----15-14-15----15--
G---------------------------------------------------
D---------------------------------------------------
A---------------------------------------------------
E---------------------------------------------------


e--------15----------15----------15----------15-----
B--12-13----13-12-13----13-12-13----13-12-13----13--
G---------------------------------------------------
D---------------------------------------------------
A---------------------------------------------------
E--------------------------------------------------- 

Play Part I twice, then continue to Part II
 



Part II

e--------15----------15----------15----------15-----
B--10-11----11-10-11----11-10-11----11-10-11----11--
G---------------------------------------------------
D---------------------------------------------------
A---------------------------------------------------
E---------------------------------------------------


e--------14----------14----------14----------14-----
B--12-13----13-12-13----13-12-13----13-12-13----13--
G---------------------------------------------------
D---------------------------------------------------
A---------------------------------------------------
E---------------------------------------------------

Go back to Part I and repeat forever... ;-)




Login or Register to remove this ad.

1 comment on Who Are You?

Thanks!

5

Easily little tune to play thanks for putting up the tabs