Ads

Weapon Raid (Final Fantasy VII) Bass/Guitar Tab

Submitted: Jul 01, 2010 by khensel (Last updated: Jul 01, 2010)

5
Average: 5 (4 votes)
Download | Listen
Game: Final Fantasy VII
Composer(s): Nobuo Uematsu
Style: 2 or more instruments, Transcription
Series: Final Fantasy

AutoScroll: Slow | Medium | Fast
Final Fantasy 7 - Weapon Raid
Composed by Nobuo Uematsu
Tabbed by brningpyre

- Arranged for 2 Guitars (6-string) and Bass (4-string) from piano sheet music, with some changes/fixes.
- "~" represents holding the note (optional vibrato)
- "h" represents a hammer-on (between notes)
- Loop is on { [A1], [A2], [B], [C] }
- 135 bpm

[A1]
G|-----------------|-----------------|-----------------|-----------------
D|-----------------|-----------------|-----------------|-----------------
A|-----------------|-----------------|-----------------|-----------------
E|-6-9-6-9-6-9-6-9-|-6-9-6-9-6-9-6-9-|-6-9-6-9-6-9-6-9-|-6-9-6-9-6-9-6-9-
   1 + 2 + 3 + 4 +   1 + 2 + 3 + 4 +   1 + 2 + 3 + 4 +   1 + 2 + 3 + 4 +

e|-----------------|-----------------|-----------------|-----------------
B|-----------------|-----------------|-----------------|-----------------
G|-----------------|-----------------|-----------------|-----------------
D|-----------------|-----------------|-----6---5---6---|-8---6---5---6---
A|-----------------|-6---------------|-8---------------|-----------------
E|-6---9---8---9---|-----9---8---9---|-----------------|-----------------
   1 + 2 + 3 + 4 +   1 + 2 + 3 + 4 +   1 + 2 + 3 + 4 +   1 + 2 + 3 + 4 +


G|-----------------|-----------------|-----------------|-----------------
D|-----------------|-----------------|-----------------|-----------------
A|-----------------|-----------------|-----------------|-----------------
E|-6-9-6-9-6-9-6-9-|-6-9-6-9-6-9-6-9-|-6-9-6-9-6-9-6-9-|-6-9-6-9-6-9-6-9-
   1 + 2 + 3 + 4 +   1 + 2 + 3 + 4 +   1 + 2 + 3 + 4 +   1 + 2 + 3 + 4 +

e|-----------------|-----------------|-----------------|-6---------------
B|-----------------|-----------------|-6---9---8---9---|-----9---8---9---
G|-----6---5---6---|-8---6---5---6---|-----------------|-----------------
D|-8---------------|-----------------|-----------------|-----------------
A|-----------------|-----------------|-----------------|-----------------
E|-----------------|-----------------|-----------------|-----------------
   1 + 2 + 3 + 4 +   1 + 2 + 3 + 4 +   1 + 2 + 3 + 4 +   1 + 2 + 3 + 4 +


G|-----------------|-----------------|
D|-------------8~~~|~~~~~~~~~~~~~~~~-|
A|-8~~~~-------8~~~|~~~~~~~~~~~~~~~~-|
E|-------9~~~~-6~~~|~~~~~~~~~~~~~~~~-|
   1 + 2 + 3 + 4 +   1 + 2 + 3 + 4 +

e|-9-8-9-6-5-6-----|-----------------|
B|-------------6-5-|-6---------------|
G|-----------------|---6-5-6---------|
D|-----------------|---------8-------|
A|-----------------|-----------8-6-4-|
E|-----------------|-----------------|
   1 + 2 + 3 + 4 +   1 + 2 + 3 + 4 +


[A2]
G|-----------------|-----------------|-----------------|-----------------
D|-----------------|-----------------|-----------------|-----------------
A|-----------------|-----------------|-----------------|-----------------
E|-6-9-6-9-6-9-6-9-|-6-9-6-9-6-9-6-9-|-6-9-6-9-6-9-6-9-|-6-9-6-9-6-9-6-9-
   1 + 2 + 3 + 4 +   1 + 2 + 3 + 4 +   1 + 2 + 3 + 4 +   1 + 2 + 3 + 4 +

e|-----------------|-----------------|-----------------|-----------------
B|-----------------|-----------------|-----------------|-----------------
G|-----------------|-----------------|-----------------|-----------------
D|-----------------|-----------------|-----6---5---6---|-8---6---5---6---
A|-----------------|-6---------------|-8---------------|-----------------
E|-6---9---8---9---|-----9---8---9---|-----------------|-----------------
   1 + 2 + 3 + 4 +   1 + 2 + 3 + 4 +   1 + 2 + 3 + 4 +   1 + 2 + 3 + 4 +


G|-----------------|-----------------|-----------------|-----------------
D|-----------------|-----------------|-----------------|-----------------
A|-----------------|-----------------|-----------------|-----------------
E|-6-9-6-9-6-9-6-9-|-6-9-6-9-6-9-6-9-|-6-9-6-9-6-9-6-9-|-6-9-6-9-6-9-6-9-
   1 + 2 + 3 + 4 +   1 + 2 + 3 + 4 +   1 + 2 + 3 + 4 +   1 + 2 + 3 + 4 +

e|-----------------|-----------------|-----------------|-6---------------
B|-----------------|-----------------|-6---9---8---9---|-----9---8---9---
G|-----6---5---6---|-8---6---5---6---|-----------------|-----------------
D|-8---------------|-----------------|-----------------|-----------------
A|-----------------|-----------------|-----------------|-----------------
E|-----------------|-----------------|-----------------|-----------------
   1 + 2 + 3 + 4 +   1 + 2 + 3 + 4 +   1 + 2 + 3 + 4 +   1 + 2 + 3 + 4 +


G|-----------------|-----------------|-----------------|-----------------
D|-------------8~~~|~~~~~~~~~~~~~~~~-|-------------8~~~|~~~~~~~~~~~~~~~~-
A|-8~~~~-------8~~~|~~~~~~~~~~~~~~~~-|-8~~~~-------8~~~|~~~~~~~~~~~~~~~~-
E|-------9~~~~-6~~~|~~~~~~~~~~~~~~~~-|-------9~~~~-6~~~|~~~~~~~~~~~~~~~~-
   1 + 2 + 3 + 4 +   1 + 2 + 3 + 4 +   1 + 2 + 3 + 4 +   1 + 2 + 3 + 4 +

e|-9-8-9-6-5-6-----|---------------6-|-9-8-9-6-5-6-----|---------------6-
B|-------------6-5-|-6-----------6---|-------------6-5-|-6-----------6---
G|-----------------|---6-5-6---6-----|-----------------|---6-5-6---6-----
D|-----------------|---------8-------|-----------------|---------8-------
A|-----------------|-----------------|-----------------|-----------------
E|-----------------|-----------------|-----------------|-----------------
   1 + 2 + 3 + 4 +   1 + 2 + 3 + 4 +   1 + 2 + 3 + 4 +   1 + 2 + 3 + 4 +


[B] (2 guitar parts)
G|-----------------|-----------------|-----------------|-----------------
D|---------4---2---|---------4---2---|---------7---5---|---------7---5---
A|-2~~~~~~-2~~~~~~-|-2~~~~~~-2~~~~~~-|-5~~~~~~-5~~~~~~-|-5~~~~~~-5~~~~~~-
E|-----------------|-----------------|-----------------|-----------------
   1 + 2 + 3 + 4 +   1 + 2 + 3 + 4 +   1 + 2 + 3 + 4 +   1 + 2 + 3 + 4 +

e|-----------------|-----------------|-----------------|-----------------
B|-----------------|-----------------|-6~~~~~~~~~~~~~~~|~~~~~~~~~~~~~~~~-
G|-7-----6-7-----6-|-7-6---6-7---9---|-----------------|-----------------
D|-----9-------9---|-----9-----------|-----------------|-----------------
A|-----------------|-----------------|-----------------|-----------------
E|-----------------|-----------------|-----------------|-----------------
   1 + 2 + 3 + 4 +   1 + 2 + 3 + 4 +   1 + 2 + 3 + 4 +   1 + 2 + 3 + 4 +

e|-----------------|-----------------|-----------------|-----------------
B|-----------------|-----------------|-----------------|-----------------
G|-----------------|-----------------|-----------------|-----------------
D|-----------------|-----------------|-----------------|-------------5---
A|-----------------|-----------------|-8---5-6-8---5-6-|-8-6-5-6-8-------
E|-----------------|-----------------|-----------------|-----------------
   1 + 2 + 3 + 4 +   1 + 2 + 3 + 4 +   1 + 2 + 3 + 4 +   1 + 2 + 3 + 4 +


G|-----------------|-----------------|---------2-------|---------2-------
D|---------6---4---|---------6---4---|-------------1---|-------------1---
A|-4~~~~~~-4~~~~~~-|-4~~~~~~-4~~~~~~-|-3~~~~~~-3~~~~~~-|-3~~~~~~-3~~~~~~-
E|-----------------|-----------------|-----------------|-----------------
   1 + 2 + 3 + 4 +   1 + 2 + 3 + 4 +   1 + 2 + 3 + 4 +   1 + 2 + 3 + 4 +

e|-----------------|-----------------|-4~~~~~~~~~~~~~~~|~~~~~~~~~~~~~~~~-
B|-5-------5-------|-5-------5---7---|-----------------|-----------------
G|-----6-8-----6-8-|---8-6-8---------|-----------------|-----------------
D|-----------------|-----------------|-----------------|-----------------
A|-----------------|-----------------|-----------------|-----------------
E|-----------------|-----------------|-----------------|-----------------
   1 + 2 + 3 + 4 +   1 + 2 + 3 + 4 +   1 + 2 + 3 + 4 +   1 + 2 + 3 + 4 +

e|-----------------|-----------------|-----------------|-----------------
B|-----------------|-----------------|-----------------|-----------------
G|-----------------|-----------------|-----------------|-----------------
D|-7~~~~~~~~~~~~~~~|~~~~~~~~~~~~~~~~-|-6-----5-6-----5-|-6-5---5-6---8---
A|-----------------|-----------------|-----8-------8---|-----8-----------
E|-----------------|-----------------|-----------------|-----------------
   1 + 2 + 3 + 4 +   1 + 2 + 3 + 4 +   1 + 2 + 3 + 4 +   1 + 2 + 3 + 4 +


G|-----------------|-----------------|-----------------|-----------------
D|-----------------|-----------------|-----------------|-----------------
A|---------3---1---|---------3---1---|---2---2---2---2-|---2---2---2---2-
E|-1~~~~~~-1~~~~~~-|-1~~~~~~-1~~~~~~-|-4---4---4---4---|-4---4---4---4---
   1 + 2 + 3 + 4 +   1 + 2 + 3 + 4 +   1 + 2 + 3 + 4 +   1 + 2 + 3 + 4 +

e|-----------------|-----------------|-----------------|-----------------
B|-----------------|-----------------|-----------------|-------------6---
G|-----------------|-----------------|-9---6-8-9---6-8-|-9-8-6-8-9-------
D|-6-----5-6-----5-|-6-5---5-6---8---|-----------------|-----------------
A|-----8-------8---|-----8-----------|-----------------|-----------------
E|-----------------|-----------------|-----------------|-----------------
   1 + 2 + 3 + 4 +   1 + 2 + 3 + 4 +   1 + 2 + 3 + 4 +   1 + 2 + 3 + 4 +

e|-----------------|-----------------|-----------------|-----------------
B|-----------------|-----------------|-----------------|-------------6---
G|-5~~~~~~~~~~~~~~~|~~~~~~~~~~~~~~~~-|-9---6-8-9---6-8-|-9-8-6-8-9-------
D|-----------------|-----------------|-----------------|-----------------
A|-----------------|-----------------|-----------------|-----------------
E|-----------------|-----------------|-----------------|-----------------
   1 + 2 + 3 + 4 +   1 + 2 + 3 + 4 +   1 + 2 + 3 + 4 +   1 + 2 + 3 + 4 +


[C]
G|-----------------|-----------------|-----------------|-----------------
D|-----------------|-----------------|-----------------|-----------------
A|-3-3-3-3-3-3-3-3-|-3-3-3-3-3-3-3-3-|-3-3-3-3-3-3-3-3-|-3-3-3-3-3-3-3-3-
E|-----------------|-----------------|-----------------|-----------------
   1 + 2 + 3 + 4 +   1 + 2 + 3 + 4 +   1 + 2 + 3 + 4 +   1 + 2 + 3 + 4 +

e|---------3~~~~~~-|-2~~~~~~-5~~~~~~-|---------3~~~~~~-|-3~~~~~~-2~~~~~~-
B|---------4~~~~~~-|-3~~~~~~-6~~~~~~-|---------4~~~~~~-|-4~~~~~~-4~~~~~~-
G|---------5~~~~~~-|-5~~~~~~-5~~~~~~-|---------5~~~~~~-|-5~~~~~~-5~~~~~~-
D|-----------------|-----------------|-----------------|-----------------
A|-----------------|-----------------|-----------------|-----------------
E|-----------------|-----------------|-----------------|-----------------
   1 + 2 + 3 + 4 +   1 + 2 + 3 + 4 +   1 + 2 + 3 + 4 +   1 + 2 + 3 + 4 +


G|-----------------|-----------------|-----------------|-----------------
D|-----------------|-----------------|---1---1---1---1-|---1---1---1---1-
A|-3-3-3-3-3-3-3-3-|-3-3-3-3-3-3-3-3-|-3---3---3---3---|-3---3---3---3---
E|-----------------|-----------------|-----------------|-----------------
   1 + 2 + 3 + 4 +   1 + 2 + 3 + 4 +   1 + 2 + 3 + 4 +   1 + 2 + 3 + 4 +

e|---------3~~~~~~-|-2~~~~~~-5~~~~~~-|-3~~~~~~~~~~~~~~~|~~~~~~~~~~~~~~~~-
B|---------4~~~~~~-|-3~~~~~~-6~~~~~~-|-4~~~~~~~~~~~~~~~|~~~~~~~~~~~~~~~~-
G|---------5~~~~~~-|-5~~~~~~-5~~~~~~-|-5~~~~~~~~~~~~~~~|~~~~~~~~~~~~~~~~-
D|-----------------|-----------------|-----------------|-----------------
A|-----------------|-----------------|-----------------|-----------------
E|-----------------|-----------------|-----------------|-----------------
   1 + 2 + 3 + 4 +   1 + 2 + 3 + 4 +   1 + 2 + 3 + 4 +   1 + 2 + 3 + 4 +
Login or Register to remove this ad.