Ads

Weapon Raid (Final Fantasy VII) Guitar Tab

Submitted: May 30, 2010 by Asa

0
Download | Listen
Game: Final Fantasy VII
Composer(s): Nobuo Uematsu
Style: Alternate picking, Transcription
Series: Final Fantasy

Click here for a video example.

AutoScroll: Slow | Medium | Fast
Weapon Raid
Final Fantasy VII
Nobuo Uematsu
FFVII OSV Disc 4 - Track 2

Tabbed by Aj Franks
5/29/10


4/4
      Q   Q   Q   Q      Q   Q   Q   Q      Q   Q   Q   Q      Q   Q   Q   Q
e||-------------------|------------------|------------------|------------------|
B||-------------------|------------------|------------------|------------------|
G||*------------------|------------------|------------------|------------------|
D||*------------------|------------------|------6---5---6---|--8---6---5---6---|
A||-------4---3---4---|--6---4---3---4---|--8---------------|------------------|
E||---6---------------|------------------|------------------|------------------|


    Q   Q   Q   Q      Q   Q   Q   Q      Q   Q   Q   Q      Q   Q   Q   Q
e|------------------|------------------|------------------|------------------|
B|------------------|------------------|------9---8---9---|--11--9---8---9---|
G|------6---5---6---|--8---6---5---6---|--10--------------|------------------|
D|--8---------------|------------------|------------------|------------------|
A|------------------|------------------|------------------|------------------|
E|------------------|------------------|------------------|------------------|


i.
    E  S S S S E  S S S S E  S S    S S E  S S S S E  E  E  E   
e|--9--8---9---6--5---6----------|------------------------------||
B|------------------------6--5---|--6---------------------------||
G|-------------------------------|------6--5---6---------------*||
D|-------------------------------|-----------------8-(3)-------*||
A|-------------------------------|--------------------8--6--4---||
E|-------------------------------|------------------------------||


ii.
    E  S S S S E  S S S S E  S S    S S E  S S S S E  E  E  E
e|--9--8---9---6--5---6----------|--------------------------6--|
B|------------------------6--5---|--6--------------------6-----|
G|-------------------------------|------6--5---6------6--------|
D|-------------------------------|-----------------8-----------|
A|-------------------------------|-----------------------------|
E|-------------------------------|-----------------------------|


    E   S S S S E  S S S S E   S  S    S S E   S S S  S E   E   E   E
e|--13--12--13--9--8---9------------|-------------------------------9--|
B|-------------------------11--10---|--11-----------------------11-----|
G|----------------------------------|------10--9---10-------10---------|
D|----------------------------------|-------------------11-------------|
A|----------------------------------|----------------------------------|
E|----------------------------------|----------------------------------|



     E.      S S S S  E.      S S S S     S.  S S S S S S  E.       E.       
e|--10---L---7---9---10---L---7---9---|--10---9---7---9---10---L---12---L---|
B|------------------------------------|-------------------------------------|
G|------------------------------------|-------------------------------------|
D|------------------------------------|-------------------------------------|
A|------------------------------------|-------------------------------------|
E|------------------------------------|-------------------------------------|


     W
e|--13----------------|--L------------L---L---|
B|--------------------|-----------------------|
G|--------------------|-----------------------|
D|--------------------|-----------------------|
A|--------------------|-----------------------|
E|--------------------|-----------------------|


     E.      S S  S S  E.      S S  S S     S.   S S S S  S S  E.       E.       
e|--12---L---9---11---12---L---9---11---|--12---11---9---11---12---L---14---L---|
B|--------------------------------------|---------------------------------------|
G|--------------------------------------|---------------------------------------|
D|--------------------------------------|---------------------------------------|
A|--------------------------------------|---------------------------------------|
E|--------------------------------------|---------------------------------------|


     W
e|--16----------------|--L------------L---L---|
B|--------------------|-----------------------|
G|--------------------|-----------------------|
D|--------------------|-----------------------|
A|--------------------|-----------------------|
E|--------------------|-----------------------|


     E.       S S  S S  E.       S S  S S     S.   S S  S S  S S  E.       E.       
e|--16---L---13---15---16---L---13---15---|--16---15---13---15---16---L---18---L---|
B|----------------------------------------|----------------------------------------|
G|----------------------------------------|----------------------------------------|
D|----------------------------------------|----------------------------------------|
A|----------------------------------------|----------------------------------------|
E|----------------------------------------|----------------------------------------|


     E.       S S  S S  E.       S S  S S     S.   S S  S S  S S  E.       E.
e|--19---L---16---18---19---L---16---18---|--19---18---16---18---19---L---21---L---|
B|----------------------------------------|----------------------------------------|
G|----------------------------------------|----------------------------------------|
D|----------------------------------------|----------------------------------------|
A|----------------------------------------|----------------------------------------|
E|----------------------------------------|----------------------------------------|



    H         Q.              Q.           Q.           
e|-----------15------L----|--14------L----16------L----|
B|------------------------|----------------------------|
G|------------------------|----------------------------|
D|------------------------|----------------------------|
A|------------------------|----------------------------|
E|------------------------|----------------------------|

    H         Q.              Q.           Q.           
e|-----------15------L----|--15------L----14------L----
B|------------------------|----------------------------|
G|------------------------|----------------------------|
D|------------------------|----------------------------|
A|------------------------|----------------------------|
E|------------------------|----------------------------|

    H         Q.              Q.           Q.
e|-----------15------L----|--14------L----16------L----|
B|------------------------|----------------------------|
G|------------------------|----------------------------|
D|------------------------|----------------------------|
A|------------------------|----------------------------|
E|------------------------|----------------------------|


     W
e|--15----------------|--L------------L---L----||
B|--------------------|------------------------||
G|--------------------|-----------------------*||
D|--------------------|-----------------------*||
A|--------------------|------------------------||
E|--------------------|------------------------||
Login or Register to remove this ad.