Ads

Underneath the Rotting Pizza (Final Fantasy VII) Guitar Tab

Submitted: Jun 02, 2010 by Daugreano

5
Average: 5 (1 vote)
Download | Listen
Game: Final Fantasy VII
Composer(s): Nobuo Uematsu
Style: Alternate picking, Transcription
Series: Final Fantasy

AutoScroll: Slow | Medium | Fast
Song: Underneath The Rotting Pizza
Game: Final Fantasy VII
Composer: Nobuo Uematsu
Tabbed by: Daugreano


Guitar: 

There are three measures before this tab begins...


   Q    S  S  S  S    E   S  S  Q      H       S  S  S  Q    S    S  S  S  S  S  S  S  S
E|------------------|----------------|-------|----------0-------|-------------------------|
B|------------------|----------------|-------|-------3----------|-------------------------|
G|------------------|----------------|-------|----0-------------|-------------------------|
D|------------0-----|-2--------------|-------|-2----------------|-------0-----3--2--0--3--|
A|---------2-----2--|----------------|-------|------------------|----2-----2--------------|
E|------------------|-----0--0-------|-------|------------------|-------------------------|

   E   S  S  Q      H       S  S  S  Q    Q    Q    S  S  S  S    E   S  S  Q
E|----------------|-------|----------1-------|------------------|----------------|
B|----------------|-------|-------0----------|------------------|----------------|
G|----------------|-------|----2-------------|------------------|----------------|
D|-2--------------|-------|-0----------------|------------0-----|-2--------------|
A|----------------|-------|------------------|---------2-----2--|----------------|
E|-----0--0-------|-------|------------------|------------------|-----0--0-------|

   H       S  S  S  Q    S    S  S  S  S  S  S  S  S    E   S  S   Q     H       S  S  S  Q    S
E|-------|----------3-------|-------------------------|----------------|-------|----------1-------|
B|-------|-------0----------|-------------------------|----------------|-------|-------1----------|
G|-------|----2-------------|-------------------------|----------------|-------|----0-------------|
D|-------|-2----------------|-------0-----3--2--0--3--|-2--------------|-------|-0----------------|
A|-------|------------------|----2-----2--------------|----------------|-------|------------------|
E|-------|------------------|-------------------------|-----0--0-------|-------|------------------|

                                           There are actually three measures here
                                                        -----I-----
                                                             V
   H       H       Q    Q      H       Q    Q      H       H       H       Q    Q      
E|-------|-------|-----------|-------|-----------|-------|-------|-------|-----------|
B|-------|-------|-----------|-5-----|------3----|-2-----|-------|-------|-----------|
G|-------|-------|-----------|-------|-----------|-------|-------|-------|-0----1----|
D|-------|-0-----|-2----3----|-------|-----------|-------|-------|-3-----|-----------|
A|-------|-------|-----------|-------|-----------|-------|-------|-------|-----------|
E|-------|-------|-----------|-------|-----------|-------|-------|-------|-----------|

   H       H       H
E|-3-----|-------|-------|
B|-------|-2-----|-11----|
G|-------|-------|-------|
D|-------|-------|-------|
A|-------|-------|-------|
E|-------|-------|-------|



Login or Register to remove this ad.

1 comment on Underneath the Rotting Pizza

Good tab

Good tab