Ads

Turk's Theme (Final Fantasy VII) Bass/Guitar Tab

Submitted: Dec 21, 2012 by hashel

5
Average: 5 (2 votes)
Download | Listen
Game: Final Fantasy VII
Composer(s): Nobuo Uematsu
Style: 2 or more instruments, Transcription
Series: Final Fantasy

AutoScroll: Slow | Medium | Fast
Title: Turks Theme
Artist: Nobuo Uematsu
Album: FF7 OST
Music: Nobuo Uematsu
Copyright: Squaresoft
Tabber: Hashel05
Tempo = 114


Guitar



E |----|----|----|----|----|----|----|----------------------------|-------|
B |----|----|----|----|----|----|----|----------------------------|-------|
G |----|----|----|----|----|----|----|----------------------------|-------|
D |----|----|----|----|----|----|----|----------------------------|-------|
A |----|----|----|----|----|----|----|-----------------0--3--5----|--5L---|
E |----|----|----|----|----|----|----|----------------------------|-------|


-------|-------|----------------------------|-------|-------|-------|
-------|-------|----------------------------|-------|-------|-------|
-------|-------|----------------------------|-------|-------|-------|
-------|-------|-----------------------5----|--5L---|--5----|-------|
--5----|-------|-----------------5--8-------|-------|-------|-------|
-------|-------|----------------------------|-------|-------|-------|


----------------------------|-------|-------|-------|
----------------------------|-------|-------|-------|
----------------------------|-------|-------|-------|
----------------------------|-------|-------|-------|
-----------------0--3--5----|--5L---|--5----|-------|
----------------------------|-------|-------|-------|


----------------------------|-------|-------|-------|
----------------------------|-------|-------|-------|
----------------------------|-------|-------|-------|
--------------------5--7----|--7L---|--7----|-------|
-----------------7----------|-------|-------|-------|
----------------------------|-------|-------|-------|


----------------------------|-------|-------|-------|----|----|----|----|
----------------------------|-------|-------|-------|----|----|----|----|
----------------------------|-------|-------|-------|----|----|----|----|
----------------------------|-------|-------|-------|----|----|----|----|
-----------------0--3--5----|--5L---|--5----|-------|----|----|----|----|
----------------------------|-------|-------|-------|----|----|----|----|


----------------------------|-------|-------|-------|
----------------------------|-------|-------|-------|
----------------------------|-------|-------|-------|
----------------------------|-------|-------|-------|
-----------------0--3--5----|--5L---|--5----|-------|
----------------------------|-------|-------|-------|


----------------------------|-------|-------|-------|
----------------------------|-------|-------|-------|
----------------------------|-------|-------|-------|
-----------------------5----|--5L---|--5----|-------|
-----------------5--8-------|-------|-------|-------|
----------------------------|-------|-------|-------|


----------------------------|-------|-------|-------|
----------------------------|-------|-------|-------|
----------------------------|-------|-------|-------|
----------------------------|-------|-------|-------|
-----------------0--3--5----|--5L---|--5----|-------|
----------------------------|-------|-------|-------|


----------------------------|-------|-------|-------|
----------------------------|-------|-------|-------|
----------------------------|-------|-------|-------|
--------------------5--7----|--7L---|--7----|-------|
-----------------7----------|-------|-------|-------|
----------------------------|-------|-------|-------|


----------------------------|-------|-------|----|----|----||
----------------------------|-------|-------|----|----|----||
----------------------------|-------|-------|----|----|----||
----------------------------|-------|-------|----|----|----||
-----------------0--3--5----|--5L---|--5----|----|----|----||
----------------------------|-------|-------|----|----|----||



Bass



G |----|----|----|----|----------------------------|
D |----|----|----|----|----------------------------|
A |----|----|----|----|----------------------------|
E |----|----|----|----|--1--------------------1----|


----------------------------|----------------------------|
----------------------------|----------------------------|
----------------------------|----------------------------|
--1-------------------------|--1--------------------1----|


----------------------------|----------------------------|
-----------------------0----|----------------------------|
-----------------0--3-------|----------------------------|
--1-------------------------|--1--------------------1----|


----------------------------|----------------------------|
----------------------------|----------------------------|
----------------------------|----------------------------|
--1-------------------------|--1--------------------1----|


-----------------------0----|----------------------------|
-----------------0--3-------|----------------------------|
----------------------------|----------------------------|
--1-------------------------|--1--------------------1----|


----------------------------|----------------------------|
----------------------------|----------------------------|
----------------------------|----------------------------|
--1-------------------------|--1--------------------1----|


----------------------------|----------------------------|
-----------------------0----|----------------------------|
-----------------0--3-------|----------------------------|
--1-------------------------|--1--------------------1----|


----------------------------|----------------------------|
----------------------------|----------------------------|
----------------------------|----------------------------|
--1-------------------------|--1--------------------1----|


--------------------0--2----|----------------------------|
-----------------2----------|----------------------------|
----------------------------|----------------------------|
--1-------------------------|--1--------------------1----|


----------------------------|----------------------------|
----------------------------|----------------------------|
----------------------------|----------------------------|
--1-------------------------|--1--------------------1----|


----------------------------|----------------------------|
-----------------------0----|----------------------------|
-----------------0--3-------|----------------------------|
--1-------------------------|--1--------------------1----|


----------------------------|----------------------------|
----------------------------|----------------------------|
----------------------------|----------------------------|
--1-------------------------|--1--------------------1----|


----------------------------|----------------------------|
----------------------------|----------------------------|
----------------------------|----------------------------|
--1-------------------------|--1--------------------1----|


----------------------------|----------------------------|
----------------------------|----------------------------|
----------------------------|----------------------------|
--1-------------------------|--1--------------------1----|


----------------------------|
-----------------------0----|
-----------------0--3-------|
--1-------------------------|


----------------------------------------------------|
----------------------------------------------------|
----------------------------------------------------|
--1--------1--------1-----------1-----1-------------|


----------------------------------------------------|
----------------------------------------------------|
--------------------------------------3-------------|
--1--------1--------1-----------1-------------------|


----------------------------------------------------|
----------------------------------------------------|
----------------------------------------------------|
--1--------1--------1-----------1-----1-------------|


--------------------------------------------0-------|
--------------------------------0-----3-------------|
----------------------------------------------------|
--1--------1--------1-------------------------------|


----------------------------------------------------|
----------------------------------------------------|
----------------------------------------------------|
--1--------1--------1-----------1-----1-------------|


----------------------------------------------------|
----------------------------------------------------|
--------------------------------------3-------------|
--1--------1--------1-----------1-------------------|


----------------------------------------------------|
----------------------------------------------------|
----------------------------------------------------|
--1--------1--------1-----------1-----1-------------|


----------------------------------------------------|
--------------------------------------------0-------|
--------------------------------0-----3-------------|
--1--------1--------1-------------------------------|


----------------------------------------------------|
----------------------------------------------------|
----------------------------------------------------|
--1--------1--------1-----------1-----1-------------|


----------------------------------------------------|
----------------------------------------------------|
--------------------------------------3-------------|
--1--------1--------1-----------1-------------------|


----------------------------------------------------|
----------------------------------------------------|
----------------------------------------------------|
--1--------1--------1-----------1-----1-------------|


--------------------------------------0-----2-------|
--------------------------------2-------------------|
----------------------------------------------------|
--1--------1--------1-------------------------------|


----------------------------------------------------|
----------------------------------------------------|
----------------------------------------------------|
--1--------1--------1-----------1-----1-------------|


----------------------------------------------------|
----------------------------------------------------|
--------------------------------------3-------------|
--1--------1--------1-----------1-------------------|


----------------------------------------------------|
----------------------------------------------------|
----------------------------------------------------|
--1--------1--------1-----------1-----1-------------|


----------------------------------------------------|
--------------------------------------------0-------|
--------------------------------0-----3-------------|
--1--------1--------1-------------------------------|


----------------------------------------------------|
----------------------------------------------------|
----------------------------------------------------|
--1--------1--------1-----------1-----1-------------|


----------------------------------------------------|
----------------------------------------------------|
--------------------------------------3-------------|
--1--------1--------1-----------1-------------------|


----------------------------------------------------|
----------------------------------------------------|
----------------------------------------------------|
--1--------1--------1-----------1-----1-------------|


----------------------------------------------------------|----||
----------------------------------------------------------|----||
--------------------------------------3-------------------|----||
--1--------1--------1-----------1-------------------------|----||
Login or Register to remove this ad.